Stop Thinkin 'Bout You

(/) Slide Up  (\) Slide Down  (h) Hammer On  (p) Pull Off  (b) Bend (r) Release (v) Vibrato


E|------------------------------------------------|-
B|------------------------------------------------|-
G|------------------------------------------------|-
D|-10---10-10--7----7-7-7-7-5---5-5--3----3-3-3-3-|-
A|-10---10-10--7----7-7-7-7-5---5-5--3----3-3-3-3-|-
E|-8----8--8---5----5-5-5-5-3---3-3--1----1-1-1-1-|-



E|-----------------------------------------------------------------|-
B|-----------------------------------------------------------------|-
G|---------------------------------5-5-5-5-5-5---------------------|-
D|-7-7-7-7-7-7-7-7-5-5-5-5-5-5-5-5-5-5-5-5-5-5-5-5-3-3-3-3-3-3-5-5-|-
A|-7-7-7-7-7-7-7-7-5-5-5-5-5-5-5-5-3-3-3-3-3-3-5-5-3-3-3-3-3-3-5-5-|-
E|-5-5-5-5-5-5-5-5-3-3-3-3-3-3-3-3-------------3-3-1-1-1-1-1-1-3-3-|-



E|-------------------------------------------------------------------------|-
B|-------------------------------------------------------------------------|-
G|---------------------------------5-5-5-5-5-5-5-5-10-10-10-10-10-10-10-10-|-
D|-7-7-7-7-7-7-7-7-5-5-5-5-5-5-5-5-5-5-5-5-5-5-5-5-10-10-10-10-10-10-10-10-|-
A|-7-7-7-7-7-7-7-7-5-5-5-5-5-5-5-5-3-3-3-3-3-3-3-3-8--8--8--8--8--8--8--8--|-
E|-5-5-5-5-5-5-5-5-3-3-3-3-3-3-3-3-----------------------------------------|-



E|-----------------------------------------------------------------|-
B|-----------------------------------------------------------------|-
G|-----------------------------------------------------------------|-
D|-7-7-7-7-7-7-7-7-5-5-5-5-5-5-5-5-3-3-3-3-3-3-3-3-3-3-3-3-3-3-3-3-|-
A|-7-7-7-7-7-7-7-7-5-5-5-5-5-5-5-5-3-3-3-3-3-3-3-3-3-3-3-3-3-3-3-3-|-
E|-5-5-5-5-5-5-5-5-3-3-3-3-3-3-3-3-1-1-1-1-1-1-1-1-1-1-1-1-1-1-1-1-|-



E|-------------------------------------------|---
B|-------------------------------------------|---
G|-------------------------------------------|---
D|-10---10-10--7-----7-7-7-7-5--5--5--3------|---
A|-10---10-10--7-----7-7-7-7-5--5--5--3------|---
E|-8----8--8---5-----5-5-5-5-3--3--3--1------|---



E|-----------------------------|-
B|-----------------------------|-
G|-----------------------------|-
D|-10-----7------5------3------|-
A|-10-----7------5------3------|-
E|-8------5------3------1------|-
http://www.guitartabcreator.com
Guitar Tab Creator is intended to store guitar tab created through the tool. It currently does not support in-line text editing. Any text you place in here will be lost. If you need to comment on your tab, please use the "Tab Notes" section located below.