Eat Or Be Eaten

(/) Slide Up  (\) Slide Down  (h) Hammer On  (p) Pull Off  (b) Bend (r) Release (v) Vibrato


E|-0--0--0-0-0-0--0--0--0-0-0-0--0--0--0-0-0-0--0--0--0-0-0-0-
B|-0--0--0-0-0-0--0--0--0-0-0-0--0--0--0-0-0-0--0--0--0-0-0-0-
G|-1--1--1-1-1-1--4--4--4-4-4-4--6--6--6-6-6-6--2--2--2-2-2-2-
D|-2--2--2-2-2-2--4--4--4-4-4-4--6--6--6-6-6-6--2--2--2-2-2-2-
A|-2--2--2-2-2-2--2--2--2-2-2-2--4--4--4-4-4-4--0--0--0-0-0-0-
E|-0--0--0-0-0-0----------------------------------------------



E|-0---------0---------0---------0-----0-----0----------------|-
B|-0---------0---------0---------0-----0-----0----------------|-
G|-1---------4---------6---------2-----4-----1----------------|-
D|-2---------4---------6---------2-----4-----2----------------|-
A|-2---------2---------4---------0-----2-----2----------------|-
E|-0-----------------------------------------0----------------|-
http://www.guitartabcreator.com
Guitar Tab Creator is intended to store guitar tab created through the tool. It currently does not support in-line text editing. Any text you place in here will be lost. If you need to comment on your tab, please use the "Tab Notes" section located below.