Birth

(/) Slide Up  (\) Slide Down  (h) Hammer On  (p) Pull Off  (b) Bend (r) Release (v) Vibrato

E|--0h3------3------3----3p2------------------------------------------------------------------------
B|----------------------------3------2----3p2---------------------0h2h3------0h2h3p2p0--------------
G|---------------------------------------------4----0h2------4p2------------------------2--4--------
D|--------------------------------------------------------------------------------------------------
A|--------------------------------------------------------------------------------------------------
E|--------------------------------------------------------------------------------------------------



E|------------2------3h5h7----3----5------5h7h8----5----3------10p8p7----5----8------8p7----8-------
B|--0----3------------------------------------------------------------------------------------------
G|--------------------------------------------------------------------------------------------------
D|--------------------------------------------------------------------------------------------------
A|--------------------------------------------------------------------------------------------------
E|--------------------------------------------------------------------------------------------------
http://www.guitartabcreator.com
Guitar Tab Creator is intended to store guitar tab created through the tool. It currently does not support in-line text editing. Any text you place in here will be lost. If you need to comment on your tab, please use the "Tab Notes" section located below.