XYZ

(/) Slide Up  (\) Slide Down  (h) Hammer On  (p) Pull Off  (b) Bend (r) Release (v) Vibrato

Stave 1:

E|--------------------------------------------------------|-----------------------------------------------------
B|--------------------------------------------------------|-----------------------------------------------------
G|--------------------------------------------------------|-----------------------------------------------------
D|--------------------------------------------------------|-----------------------------------------------------
A|--9--9----9----9--9----9----5--5----5----------5--5--5--|-----------------------------------------------------
E|--7--7----7----7--7----7----3--3----3----0--0-----------|-----------------------------------------------------

Stave 2:

E|-----------------------------------------------------------|--
B|-----------------------------------------------------------|--
G|-----------------------------------------------------------|--
D|-------------9-------------9-------------5-----------------|--
A|--------------------------------------------------5--5--5--|--
E|--7--7----7-----7--7----7-----3--3----3-----0--0-----------|--

Stave 3:

E|--------------------------------------------------------|--
B|--------------------------------------------------------|--
G|--------------------------------------------------------|--
D|-------------9-------------9-------------5-----2--4-----|--
A|-----------------------------------------------------2--|--
E|--7--7----7-----7--7----7-----3--3----3-----3-----------|--

Stave 4:

E|-------------------------------|--
B|-------------------------------|--
G|-------------------------------|--
D|-------------------------------|--
A|--------------7--7--9--10--12--|--
E|--0--0--1--2-------------------|--

Stave 5:

E|-----------------------------------|-----------------------------------|--
B|-----------------------------------|-----------------------------------|--
G|-----------------------------------|-----------------------------------|--
D|--------------------------------4--|--4--4-----------------------------|--
A|--------5-----------------5--7-----|--------5-----------------------2--|--
E|--5--7-----7--7--5--7--7-----------|-----------3--3--0--3--3--3--5-----|--

Stave 6:

E|---------------------------------------------------------------|------------------------------------------------------------------------------|--
B|---------------------------------------------------------------|------------------------------------------------------------------------------|--
G|---------------------------------------------------------------|-----4-----4--4---------2--------2--------------------------------------------|--
D|-----------------7h9--7-----7--7----------------7--7--7--------|-------------------2h4-----4--4-----4--3--2-----------------------------------|--
A|-------------------------9--------9--8--7----------------------|--2-----2---------------------------------------------------------------------|--
E|--7--7----7--10----------------------------0-------------5--6--|---------------------------------------------0----0--2--3--3----5----5--5--5--|--

http://www.guitartabcreator.com
Guitar Tab Creator is intended to store guitar tab created through the tool. It currently does not support in-line text editing. Any text you place in here will be lost. If you need to comment on your tab, please use the "Tab Notes" section located below.