We Will Rock You by Queen

(/) Slide Up  (\) Slide Down  (h) Hammer On  (p) Pull Off  (b) Bend (r) Release (v) Vibrato

Stave 1:

E|--------------------------------------------------------------------------------------
B|-----------------------------------------------------------3--1--1--------------------
G|--0--2--2--0--2--2--0--2--2--0--2--2--0--2--2--0--2--0--2--------------0--2--2--0--2--
D|--------------------------------------------------------------------2-----------------
A|--------------------------------------------------------------------------------------
E|--------------------------------------------------------------------------------------

Stave 2:

E|-----------------------------------------------------------------------------------
B|-----------------------------------------------1--0--------------1--0--------------
G|-----2--2--2--0--0--0--0--------------------0--------2--0--2--2--------2--0--2--2--
D|--2-----------------------2--0-----------2-----------------------------------------
A|--------------------------------3--0--0--------------------------------------------
E|-----------------------------------------------------------------------------------

Stave 3:

E|--
B|--
G|--
D|--
A|--
E|--

http://www.guitartabcreator.com
Guitar Tab Creator is intended to store guitar tab created through the tool. It currently does not support in-line text editing. Any text you place in here will be lost. If you need to comment on your tab, please use the "Tab Notes" section located below.