Crazy Train by Ozzie Osbourne

(/) Slide Up  (\) Slide Down  (h) Hammer On  (p) Pull Off  (b) Bend (r) Release (v) Vibrato

Stave 1:

E|--2--2--5--5--0--0--2--2--------0--0--2--2--5--5--0--0--2--2--------------
B|--------------------------5--5--------------------------------5--5--7--7--
G|--------------------------------------------------------------------------
D|--------------------------------------------------------------------------
A|--------------------------------------------------------------------------
E|--------------------------------------------------------------------------

Stave 2:

E|--2--2-----2-----2-----2-----5--4--5-----5--4--0--2--2-----2-----2-----2-----5--4--5-----
B|--------4-----5-----4-----2-----------2-----------------4-----5-----4-----2-----------2--
G|-----------------------------------------------------------------------------------------
D|-----------------------------------------------------------------------------------------
A|-----------------------------------------------------------------------------------------
E|-----------------------------------------------------------------------------------------

Stave 3:

E|--5--4--0--2--2-----2-----2-----2-----5--4--5-----5--4--0--2--2-----2-----2-----2--------------
B|-----------------4-----5-----4-----2-----------2-----------------4-----5-----4-----5--5--7--7--
G|-----------------------------------------------------------------------------------------------
D|-----------------------------------------------------------------------------------------------
A|-----------------------------------------------------------------------------------------------
E|-----------------------------------------------------------------------------------------------

http://www.guitartabcreator.com
Guitar Tab Creator is intended to store guitar tab created through the tool. It currently does not support in-line text editing. Any text you place in here will be lost. If you need to comment on your tab, please use the "Tab Notes" section located below.