RORO

(/) Slide Up  (\) Slide Down  (h) Hammer On  (p) Pull Off  (b) Bend (r) Release (v) Vibrato
E|---------------------------------------------------------------------------------
B|---------------------------------------------------------------------------------
G|-----7--9--10--9--7--9--5--3--5--3-----------------------------------------------
D|--7---------------------------------5--7--3--5--3--------------------------------
A|---------------------------------------------------5--3--5--5--3--------5--------
E|------------------------------------------------------------------5--3-----0-----



E|--------10--13--13--13--10------------------------------
B|----------------------------13--10----------------------
G|--7--9------------------------------12--10--12--10------
D|----------------------------------------------------12--
A|--------------------------------------------------------
E|--------------------------------------------------------



E|--------10--13--13--15--13--10-----------------------------------------------
B|--------------------------------13--10--13--10-------------------------------
G|--7--9------------------------------------------12--7--9/12--11--9--7-----9--
D|-----------------------------------------------------------------------9-----
A|-----------------------------------------------------------------------------
E|-----------------------------------------------------------------------------
http://www.guitartabcreator.com
Guitar Tab Creator is intended to store guitar tab created through the tool. It currently does not support in-line text editing. Any text you place in here will be lost. If you need to comment on your tab, please use the "Tab Notes" section located below.