Just a fool christina aguilera ft Blake Shelton

(/) Slide Up  (\) Slide Down  (h) Hammer On  (p) Pull Off  (b) Bend (r) Release (v) Vibrato
E|--------------------------------------------
B|--------------12h13p--------------------12--
G|----------12--------12--------------12------
D|------12----------------12------12----------
A|--10------------------------10--------------
E|--------------------------------------------



E|--------------------------------------------
B|--------------12h13p--------------------12--
G|----------12--------12--------------12------
D|------12----------------12------12----------
A|--10------------------------10--------------
E|--------------------------------------------



E|----------------------------------------------------
B|--------------12h13p--------------------12----------
G|----------12--------12--------------12------12------
D|------12----------------12------12--------------12--
A|--10------------------------10----------------------
E|----------------------------------------------------



E|---------------------------------
B|-----------7--------7h8p---------
G|--------7-----7---------7--------
D|-----7-----------7---------7-----
A|--5------------------------------
E|---------------------------------
http://www.guitartabcreator.com
Guitar Tab Creator is intended to store guitar tab created through the tool. It currently does not support in-line text editing. Any text you place in here will be lost. If you need to comment on your tab, please use the "Tab Notes" section located below.