minor Major scale #4 (A-B-C-D#-E-F#-G#)

(/) Slide Up  (\) Slide Down  (h) Hammer On  (p) Pull Off  (b) Bend (r) Release (v) Vibrato

E|-----------------------------------------------0--2--4--5--7--8--7--5--------------------------
B|--------------------------------------0--1--4--------------------------7--5--4-----------------
G|-----------------------------1--2--4--------------------------------------------5--4-----------
D|--------------------1--2--4-----------------------------------------------------------7--6--4--
A|-----------0--2--3-----------------------------------------------------------------------------
E|--0--2--4--------------------------------------------------------------------------------------



E|----------------------------------------------------------------7--8--11--
B|------------------------------------------------------7--9--10------------
G|--------------------------------------------8--9--11----------------------
D|----------------------------------7--9--10--------------------------------
A|--7--6------------------7--9--11------------------------------------------
E|--------8--7--5--8--11----------------------------------------------------
http://www.guitartabcreator.com
Guitar Tab Creator is intended to store guitar tab created through the tool. It currently does not support in-line text editing. Any text you place in here will be lost. If you need to comment on your tab, please use the "Tab Notes" section located below.