Hotel california

(/) Slide Up  (\) Slide Down  (h) Hammer On  (p) Pull Off  (b) Bend (r) Release (v) Vibrato

E|--7--------------7-----9----------9---------5--------------5-----7--------------------
B|--7--7-----7--------7--11--11-----------11--5--5-----5--------5--9--------------9-----
G|--7-----7-----7--------9-------9-----9------6-----6-----6--------9--9-----9-----------
D|--9--------------------11-------------------7--------------------9-----9-----9--------
A|--9--------------------9--------------------7--------------------7--------------------
E|--7-----------------------------------------5-----------------------------------------



E|--3--------------3-----2--------------2--0--------------0-----2--------2--------
B|--3--3-----3--------3--3--3-----3--------0--0-----0--------0--2--2-----------2--
G|--4-----4-----4--------2-----2-----2-----0-----0-----0--------3-----3-----3-----
D|--5--------------------0-----------------2--------------------2-----------------
A|--5--------------------------------------2--------------------4-----------------
E|--3--------------------------------------0--------------------2-----------------
http://www.guitartabcreator.com
Guitar Tab Creator is intended to store guitar tab created through the tool. It currently does not support in-line text editing. Any text you place in here will be lost. If you need to comment on your tab, please use the "Tab Notes" section located below.