Escalas Mayores

(/) Slide Up  (\) Slide Down  (h) Hammer On  (p) Pull Off  (b) Bend (r) Release (v) Vibrato
E|-------------------------------------------5-7-8-------------------------5-7-8-
B|-------------0-1---------------------5-6-8-------------------------5-6-8-------
G|---------0-2---------------2-4-5-5-7-------------------------4-5-7-------------
D|---0-2-3-------------2-3-5-----------------------------3-5-7-------------------
A|-3---------------3-5-----------------------------3-5-7-------------------------
E|-------------------------------------------------------------------------------



E|-----------------------------7-8------------------------------------------
B|------------------------8-10-------------------------------------10-12-13-
G|-----------------7-9-10----------------------------------9-10-12----------
D|-------------7-9---------------------------------9-10-12------------------
A|------7-8-10-----------------------------8-10-12--------------------------
E|-8-10----------------------------8-10-12----------------------------------



E|--------------------------------------------7-9-10--------------------------7-9-10-
B|-------------2-3---------------------7-8-10--------------------------7-8-10--------
G|-------0-2-4---------------4-6-7-7-9---------------------------6-7-9---------------
D|-0-2-4---------------4-5-7-------------------------------5-7-9---------------------
A|-----------------5-7-------------------------------5-7-9---------------------------
E|-----------------------------------------------------------------------------------



E|--------------------------------------------------------------9-11-12-
B|---------------------------2-4-5----------------------9-10-12---------
G|---------------------1-2-4-----------------6-8-9-9-11-----------------
D|-------------1-2-2-4-----------------6-7-9----------------------------
A|-------0-2-4---------------------7-9----------------------------------
E|-0-2-4----------------------------------------------------------------



E|-----------------------------------------------------------------10-12-13-
B|-------------------------3-5-6--------------------------10-11-13----------
G|-------------------2-3-5-------------------7-9-10-10-12-------------------
D|-------------2-3-5------------------7-8-10--------------------------------
A|-------1-3-5-------------------8-10---------------------------------------
E|-1-3-5--------------------------------------------------------------------



E|---------------------------2-3-------------------------------------------------
B|-----------------------3-5-----------------------------5-7-8-----------5-7-8---
G|-----------------2-4-5---------------------------4-5-7-----------4-5-7---------
D|-----------2-4-5---------------------------4-5-7-------------5-7---------------
A|-----2-3-5---------------------------3-5-7-------------------------------------
E|-3-5---------------------------3-5-7-------------------------------------------



E|----------------------------------------------------------------------------------------
B|---------------------------------------------------------7-9-10-------------------------
G|-------------1-2-----------------------------------6-7-9-----------------------11-13-14-
D|-------0-2-4---------------4-6-7-------------6-7-9--------------------11-12-14----------
A|-0-2-4---------------4-5-7-------------5-7-9--------------------12-14-------------------
E|-----------------5-7-------------5-7-9--------------------------------------------------



E|---------------------------4-6-7-------------------------4-6-7-----------------
B|---------------------4-5-7-------------------------4-5-7-----------------------
G|-----------1-3-4-4-6-------------------------3-4-6-----------------------------
D|-----1-2-4-----------------------------2-4-6-----------------------------6-8-9-
A|-2-4-----------------------------2-4-6-----------------------------6-7-9-------
E|---------------------------------------------------------------7-9-------------



E|-----------------------------------------------------
B|------------------------------------------9--11--12--
G|--------------------------------8--9--11-------------
D|----------------------8--9--11-----------------------
A|------------7--9--11---------------------------------
E|--7--9--11-------------------------------------------
http://www.guitartabcreator.com
Guitar Tab Creator is intended to store guitar tab created through the tool. It currently does not support in-line text editing. Any text you place in here will be lost. If you need to comment on your tab, please use the "Tab Notes" section located below.