Speed

(/) Slide Up  (\) Slide Down  (h) Hammer On  (p) Pull Off  (b) Bend (r) Release (v) Vibrato




E|-------------------------------------------------------------
B|-------------------------------------------------------------
G|-------------------------------------------------------------
D|--5-2-2-2-2-2-2-225--2-2-2-2-2-2-225--2-2-2-2-2-2-2----------
A|--5-2-2-2-2-2-2-225--2-2-2-2-2-2-225--2-2-2-2-2-2-2-005//7//9
E|--3-0-0-0-0-0-0-003--0-0-0-0-0-0-003--0-0-0-0-0-0-0-003005007

E|----------------
B|----------------
G|----------------
D|--4----------2-4
A|--4----------2-4
E|--2--0000000-0-2 (x3)



Taylor & Caleb Solo's while opposite guitarist is playing above
http://www.guitartabcreator.com
Guitar Tab Creator is intended to store guitar tab created through the tool. It currently does not support in-line text editing. Any text you place in here will be lost. If you need to comment on your tab, please use the "Tab Notes" section located below.