No More Kings (Taylor)

(/) Slide Up  (\) Slide Down  (h) Hammer On  (p) Pull Off  (b) Bend (r) Release (v) Vibrato


E|------------------------------------------------------------------------------------------
B|------------------------------------------------------------------------------------------
G|---------------------------------------------------------------------------11--12--11-----
D|-------------------------10----------------------------------------10--12-----------------
A|----------9--10--12--13----------13--12--13--12------------12--13-------------------------
E|--10--11-----------------------------------------11---------------------------------------



E|----------------------10--11--14------
B|--13--11--10--11--13------------------
G|--------------------------------------
D|--------------------------------------
A|--------------------------------------
E|--------------------------------------



E|-14-11-10-14-11-10-14-11-10-14-11-10-14-11-10-14-11-10-14-11-10-14-11-10/14-
B|----------------------------------------------------------------------------
G|----------------------------------------------------------------------------
D|----------------------------------------------------------------------------
A|----------------------------------------------------------------------------
E|----------------------------------------------------------------------------



E|-5-5-5-5-5--5-5-5-5-5-5-----------------
B|-6-6-6-5-5--6-6-6-6-5-5-----------------
G|-5-5-5-5-5--5-5-5-5-5-5-----------------
D|-7-7-7-5-5--7-7-7-7-5-5-----5---------5-
A|-5-5-5-5-5--5-5-5-5-5-5-----5---------5-
E|----------------------------3---------3-
http://www.guitartabcreator.com
Guitar Tab Creator is intended to store guitar tab created through the tool. It currently does not support in-line text editing. Any text you place in here will be lost. If you need to comment on your tab, please use the "Tab Notes" section located below.