Blues

(/) Slide Up  (\) Slide Down  (h) Hammer On  (p) Pull Off  (b) Bend (r) Release (v) Vibrato


E|----------------------------------------------------------------
B|----------------------------------------------------------------
G|--------------------------2p0-------------------------2p0--2p0--
D|--2-------2-------2-------2-0--2------2-------2-----------------
A|--2-------2-------2-------0-0--2------2-------2-----------------
E|-----3p0-----3p0-----3p0----------3p0b0--3p0--0--3p0------------



E|-------------------------------------------------
B|-------------------------------------------------
G|--2/4\2p0h2p0h2/4\2p0h2p0h2/4\2p0h2p0h2/4\2p0/14b
D|-------------------------------------------------
A|-------------------------------------------------
E|-------------------------------------------------
http://www.guitartabcreator.com
Guitar Tab Creator is intended to store guitar tab created through the tool. It currently does not support in-line text editing. Any text you place in here will be lost. If you need to comment on your tab, please use the "Tab Notes" section located below.