Restraint - Hopeless Generation

(/) Slide Up  (\) Slide Down  (h) Hammer On  (p) Pull Off  (b) Bend (r) Release (v) Vibrato

Intro/Mellanspel x2
x3 x1
E|-------------------|---------------------------------|
B|-------------------|---------------------------------|
G|-10-10-9-9-7-7-5-5-|---------------------------------|
D|-10-10-9-9-7-7-5-5-|-3-3-5-3-3-3-5-3-5-5-7-5-5-5-7-5-|
A|-8--8--7-7-5-5-3-3-|-1-1-1-1-1-1-1-1-3-3-3-3-3-3-3-3-|
E|-------------------|---------------------------------|



Vers x4
E|---------------------------------|
B|---------------------------------|
G|-----------------5-5-5-5-5-5-5-5-|
D|-3-3-3-3-3-3-3-3-5-5-5-5-5-5-5-5-|
A|-3-3-3-3-3-3-3-3-3-3-3-3-3-3-3-3-|
E|-1-1-1-1-1-1-1-1-----------------|



Refräng x4
E|---------------------------------|
B|---------------------------------|
G|---------------------------------|
D|-3-3-5-3-3-3-5-3-5-5-7-5-5-5-7-5-|
A|-1-1-1-1-1-1-1-1-3-3-3-3-3-3-3-3-|
E|---------------------------------|



SOLO
E|-6-6-8-6-6-6-8-6-8-8-10-8-8-8-10-8-|
B|-6-6-8-6-6-6-8-6-8-8-10-8-8-8-10-8-|
G|-----------------------------------|
D|-----------------------------------|
A|-----------------------------------|
E|-----------------------------------|

Outro
E|---------------------|
B|---------------------|
G|-10-10-9-9-7-7-5-5---|
D|-10-10-9-9-7-7-5-5-3-|
A|-8--8--7-7-5-5-3-3-3-|
E|-------------------1-|

Låtform:

Intro
Vers
Refräng
Mellanspel
Vers
Refräng
Mellanspel
Vers
Refräng(SOLO)
Mellanspel
Vers
Refräng
Outro
http://www.guitartabcreator.com
Guitar Tab Creator is intended to store guitar tab created through the tool. It currently does not support in-line text editing. Any text you place in here will be lost. If you need to comment on your tab, please use the "Tab Notes" section located below.