Restraint - Lies

(/) Slide Up  (\) Slide Down  (h) Hammer On  (p) Pull Off  (b) Bend (r) Release (v) Vibrato

Intro/Mellanspel x2
E|---------------------------------|
B|---------------------------------|
G|-3-3-3---3-3-3-----------5-5-5---|
D|-3-3-3---3-3-3---5-5-5---5-5-5---|
A|-3-3-3-0-1-1-1-0-5-5-5-0-3-3-3-0-|
E|-1-1-1-----------3-3-3-----------|



Vers x4
E|---------------------------------|
B|---------------------------------|
G|---------3-3-3-3---------5-5-5-5-|
D|-3-3-3-3-3-3-3-3-5-5-5-5-5-5-5-5-|
A|-3-3-3-3-1-1-1-1-5-5-5-5-3-3-3-3-|
E|-1-1-1-1---------3-3-3-3---------|



Brygga x2
E|----------------------------------
B|---------------------------------|
G|-4-5-5-5-5-5-5-5-4-5-5-5-5-5-5-5-|
D|-4-5-5-5-5-5-5-5-4-5-5-5-5-5-5-5-|
A|-2-3-3-3-3-3-3-3-2-3-3-3-3-3-3-3-|
E|---------------------------------|



Refräng x2
E|---------------------------------|
B|---------------------------------|
G|3-3-3-3---------3-3-3-3----------|
D|-3-3-3-3-3-3-3-3-3-3-3-3-3-3-3-3-|
A|-1-1-1-1-3-3-3-3-1-1-1-1-3-3-3-3-|
E|---------1-1-1-1---------1-1-1-1-|



Låtform:

Intro
Vers
Brygga
Refräng
Mellanspel
Vers
Brygga
Refräng
Mellanspel
Vers(SOLO)
Brygga
Refräng
Mellanspel
Vers
Refräng x2
Guitar Tab Creator is intended to store guitar tab created through the tool. It currently does not support in-line text editing. Any text you place in here will be lost. If you need to comment on your tab, please use the "Tab Notes" section located below.