Atreyu-Becoming the Bull

(/) Slide Up  (\) Slide Down  (h) Hammer On  (p) Pull Off  (b) Bend (r) Release (v) Vibrato

INTRO
E|-------------------------------------------------| x3 \
B|-------------------------------------------------| \
G|-------------------------------------------------| \
D|-----------------------7--6----------------------| \
A|--------8--5-(5)-5--8---------8--10--8-----------| \
E|--0--0---------------------------------10-8------| \
. . \
x2
/
E|-------------------------------------------------| /
B|-------------------------------------------------| /
G|-------------------------------------------------| /
D|-----------------------7-------------------------| /
A|--------8--5-(5)-5--8----------------------------| /
E|--0--0-------------------0-0-0-0-0-3-------------| /
. . . . . . . *


VERSE
E|-------------------------------------------------| x3
B|-------------------------------------------------|
G|-------------------------------------------------|
D|-----------------------7--6----------------------|
A|--------8--5-(5)-5--8---------8--10--8-----------|
E|--0--0---------------------------------10-8------|
. .


E|-------------------------------------------------|
B|-------------------------------------------------|
G|-------------------------------------------------|
D|-----------------------7-------------------------|
A|--------8--5-(5)-5--8----------------------------|
E|--0--0-------------------0-0-0-0-0-3-------------|
. . . . . . . *

E|-------------------------------------------------| x4
B|-------------------------------------------------|
G|-------------------------------------------------|
D|-----------------------7--6----------------------|
A|--------8--5-(5)-5--8---------8--10--8-----------|
E|--0--0---------------------------------10-8------|
. .

PRE-CHORUS
E|----------------------------------|
B|----------------------------------|
G|----------------------------------|
D|----------------------------------|
A|--------------------------X-X-X-X-|
E|--8-5-0-8-5-0-8-5-0-8-5-0-X-X-X-X-|


CHORUS
E|----------------------------------|---------------------------------| \
B|----------------------------------|---------------------------------| \
G|----------------------------------|---------------------------------| \
D|--8-8-8-8-8-8-8-8-0-0-0-0-0-0-0-0-|-5-5-5-5-5-5-5-5-5-5-5-5-5-5-5-5-| \
A|--8-8-8-8-8-8-8-8-0-0-0-0-0-0-0-0-|-3-3-3-3-3-3-3-3-5-5-5-5-5-5-5-5-| \
E|--8-8-8-8-8-8-8-8-0-0-0-0-0-0-0-0-|-----------------5-5-5-5-5-5-5-5-| \
\
x2
/
E|----------------------------------|---------------------------------| /
B|----------------------------------|---------------------------------| /
G|----------------------------------|---------------------------------| /
D|--8-8-8-8-8-8-8-8-0-0-0-0-0-0-0-0-|-5-5-5-5-5-5-5-5-5-5-5-5-5-5-5-5-| /
A|--8-8-8-8-8-8-8-8-0-0-0-0-0-0-0-0-|-3-3-3-3-3-3-3-3-2-2-2-2-2-2-2-2-| /
E|--8-8-8-8-8-8-8-8-0-0-0-0-0-0-0-0-|---------------------------------| /


POST-CHORUS
E|---------------------------------------------|--------------------------------------|
B|---------------------------------------------|--------------------------------------|
G|---------------------------------------------|--------------------------------------|
D|-----------------------7--6------------------|----------------------7--6------------|
A|--------8--5-(5)-5--8---------8--10-8--------|-------8--5-(5)-5--8------------------|
E|--0--0--------------------------------10-8---|-0--0-----------------------0-0-0-0-3-|
. . . . . . . . *


VERSE
E|----------------------------------------------------------------------|
B|----------------------------------------------------------------------|
G|----------------------------------------------------------------------|
D|---------------------------------------------------------0------------|
A|--0-0----0-0----0--0-0----0-0----0-0----0-0----0--0-0----0------------|
E|--0-0----0-0----0--0-0----0-0----0-0----0-0----0--0-0----0-0-0-0-0-3--|
. . . . . . . . . . . . . . . . . . . . *


E|-------------------------------------------| x2
B|-------------------------------------------|
G|-------------------------------------------|
D|-----------------------7--6----------------|
A|--------8--5-(5)-5--8---------8--10-8------|
E|--0--0--------------------------------10-8-|
. .


E|
B|
G|
D|
B|
A|
E|
Guitar Tab Creator is intended to store guitar tab created through the tool. It currently does not support in-line text editing. Any text you place in here will be lost. If you need to comment on your tab, please use the "Tab Notes" section located below.