Hysteria Pre Verse

(/) Slide Up  (\) Slide Down  (h) Hammer On  (p) Pull Off  (b) Bend (r) Release (v) Vibrato


E|------------------------------------------------------
B|------------------------------------------------------
G|------------------------------------------------------
D|------------------------------------------------------
A|--0--0--10--0--10--12--0--10--0--7--0--8--8--7--5--7--
E|------------------------------------------------------



E|------------------------------------------------------------
B|------------------------------------------------------------
G|------------------------------------------------------------
D|------------------------------------------------------------
A|------------------------------------------------------------
E|--0--0--10--0--10--12--0--15--0--12--0--15--15--12--15--17--



E|----------------------------------------------------------
B|----------------------------------------------------------
G|----------------------------------------------------------
D|--0--0--10--0--10--12--0--10--0--10--0--9--0--9--8--0--8--
A|----------------------------------------------------------
E|----------------------------------------------------------



E|------------------------------------------------------
B|------------------------------------------------------
G|------------------------------------------------------
D|--7---------------------------------------------------
A|-----0--10--0--10--12--0--10--0--7--0--8--8--7--5--7--
E|------------------------------------------------------



E|--
B|--
G|--
D|--
A|--
E|--
http://www.guitartabcreator.com
Guitar Tab Creator is intended to store guitar tab created through the tool. It currently does not support in-line text editing. Any text you place in here will be lost. If you need to comment on your tab, please use the "Tab Notes" section located below.