natural science lead

(/) Slide Up  (\) Slide Down  (h) Hammer On  (p) Pull Off  (b) Bend (r) Release (v) Vibrato


E|--------------------------------------------------------------------------------------
B|--------------------------------------------------------------------------------------
G|--------------------------------------0--2--------------------------------------0--2--
D|--4--2--4--2--4--2--0--4--2--4--2--4--------4--2--4--2--4--2--0--4--2--4--2--4--------
A|--------------------------------------------------------------------------------------
E|--------------------------------------------------------------------------------------



E|--------------------------------------------------------------------------------------
B|--------------------------------------1--3--------------------------------------1--3--
G|--4--2--4--2--4--2--0--4--2--4--2--4--------4--2--4--2--4--2--0--4--2--4--2--4--------
D|--------------------------------------------------------------------------------------
A|--------------------------------------------------------------------------------------
E|--------------------------------------------------------------------------------------



E|-----------------------------------------------------------------------------------------------
B|--1--0-----------------------------------------------------------------------------------------
G|--------2--0--------------------------------------0--2-----------------------------------------
D|--------------4--2--4--2--4--2--0--4--2--4--2--4--------4--2--4--2--4--2--0--4--2--4--2--4-----
A|-----------------------------------------------------------------------------------------------
E|-----------------------------------------------------------------------------------------------



E|--------------------------------------------------------------------------------------------
B|--------------------------------------------1--3--------------------------------------1--3--
G|--0--2--4--2--4--2--4--2--0--4--2--4--2--4--------4--2--4--2--4--2--0--4--2--4--2--4--------
D|--------------------------------------------------------------------------------------------
A|--------------------------------------------------------------------------------------------
E|--------------------------------------------------------------------------------------------



E|-----------------------------------------------------------------
B|--1--0-----------------------------------------------------------
G|--------2--0-----------------------------------------------------
D|--------------4--2--0--------------------------------------0--2--
A|-----------------------4--2--4--2--4--2--0--4--2--4--2--4--------
E|-----------------------------------------------------------------



E|--------------------------------------------------------------------------------
B|--------------------------------------------------------------------------------
G|--------------------------------------------------------------------------0--2--
D|--------------------------------------0--2--4--2--4--2--0--4--2--4--2--4--------
A|--4--2--4--2--4--2--0--4--2--4--2--4--------------------------------------------
E|--------------------------------------------------------------------------------



E|--------------------------------------------------------------------
B|--------------------------------------------------------------------
G|--------------------------------------0--2--0-----------------------
D|--4--2--4--2--4--2--0--4--2--4--2--4-----------4--2--0--------------
A|--------------------------------------------------------4--2--0--2--
E|--------------------------------------------------------------------
http://www.guitartabcreator.com
Guitar Tab Creator is intended to store guitar tab created through the tool. It currently does not support in-line text editing. Any text you place in here will be lost. If you need to comment on your tab, please use the "Tab Notes" section located below.