bravado solo

(/) Slide Up  (\) Slide Down  (h) Hammer On  (p) Pull Off  (b) Bend (r) Release (v) Vibrato


E|--------------10-----------------------------------------------------------------------
B|--12--12--12------10------12--12--12--12--12------10-----------------------------------
G|----------------------12----------------------12------12--9--9------9--------------12--
D|----------------------------------------------------------------12-----12--10--10------
A|---------------------------------------------------------------------------------------
E|---------------------------------------------------------------------------------------



E|-------------------------------------10--------------
B|-----------------13--13--13--13--13----------10------
G|--12--12--12--9--------------------------12------12--
D|-----------------------------------------------------
A|-----------------------------------------------------
E|-----------------------------------------------------
http://www.guitartabcreator.com
Guitar Tab Creator is intended to store guitar tab created through the tool. It currently does not support in-line text editing. Any text you place in here will be lost. If you need to comment on your tab, please use the "Tab Notes" section located below.