nameles song

    Cad9     G          Am      ka   Cad9
E|--------------------------------------|
B|--------------------------------------|
G|-----------------------------2--0-----|
D|--2--0-------------2--2--0---2--0---2-|
A|--3--0---2--2--0---2--2--0----------3-|
E|---------3--3--0----------------------| 2x



Cad9 G Am Cad9 G Am ka Cad9
E|-----------------------------------------------------------------|
B|-----------------------------------------------------------------|
G|-----------------------------------------------------2--0--------|
D|--2--0----------2--2--0---2--0-------------2--2--0---2--0---2--0-|
A|--3--0---2--0---2--2--0---3--0---2--2--0---2--2--0----------3--0-|
E|---------3--0--------------------3--3--0-------------------------|



Cad9 G Am ka Cad9 (x8)

Am Cad9 G ka Cad9 (x4)


Cad9 G Am ka Cad9
E|--------------------------------------|
B|--------------------------------------|
G|-----------------------------2--0-----|
D|--2--0-------------2--2--0---2--0---2-|
A|--3--0---2--2--0---2--2--0----------3-|
E|---------3--3--0----------------------| 2x en 2x zo snel

Cad9 G Am ka Cad9 (x8)

Am Cad9 G ka Cad9 (x4) ook 2x zo snel




Cad9 G Am ka Cad9
E|--------------------------------------|
B|--------------------------------------|
G|-----------------------------2--0-----|
D|--2--0-------------2--2--0---2--0---2-|
A|--3--0---2--2--0---2--2--0----------3-|
E|---------3--3--0----------------------| 3x elke keer iets langzamer spelen!
Guitar Tab Creator is intended to store guitar tab created through the tool. It currently does not support in-line text editing. Any text you place in here will be lost. If you need to comment on your tab, please use the "Tab Notes" section located below.