The Show

(/) Slide Up  (\) Slide Down  (h) Hammer On  (p) Pull Off  (b) Bend (r) Release (v) Vibrato
E|--------------------------------------------------------
B|--------------------------------------------------------
G|--------------------------------------------------------
D|--2--2--------------------------------------------------
A|--0--0--0--0--0--0--2b2--0--0--2b2--0--0--2b2--0-----0--
E|--------------------------------------------------3-----



E|--------------------------------------------------------------
B|--------------------------------------------------------------
G|--7--7--7--7--7--------------2--0--0--0--0--0--0--0--0--0--0--
D|--7--7--7--7--7--7--7--7--7--7--2--2--2--2--2--2--2--2--2--2--
A|--5--5--5--5--5--7--7--7--7--7--2--2--2--2--2--2--2--2--2--2--
E|-----------------5--5--5--5--5--------------------------------



E|--12--12--12--12--12--12--12--12--15--12----------------------12--15--12----------------------12-----
B|--12--12--12--12--12--12--12--12----------15--12------12--15--------------15--12------12--15---------
G|--12--12--12--12--12--12--12--12------------------15------------------------------15-----------------
D|-----------------------------------------------------------------------------------------------------
A|-----------------------------------------------------------------------------------------------------
E|-----------------------------------------------------------------------------------------------------



E|-----
B|--15b
G|-----
D|-----
A|-----
E|-----
http://www.guitartabcreator.com
Guitar Tab Creator is intended to store guitar tab created through the tool. It currently does not support in-line text editing. Any text you place in here will be lost. If you need to comment on your tab, please use the "Tab Notes" section located below.