crying train

(/) Slide Up  (\) Slide Down  (h) Hammer On  (p) Pull Off  (b) Bend (r) Release (v) Vibrato


E|----------------------------------------------------------------------
B|----------------------------------------------------------------------
G|----------------------------------------------------------------------
D|----9---------5----7----9----10----9---------5----4----5----4----2----
A|----7----7------------------------------7-----------------------------
E|----0-----------------------------------------------------------------



E|----------------------------------------------------
B|----0----1p0----3p0---------------------------------
G|-----------------------2r0----4r0-------------------
D|-------------------------------------2----0----1----
A|-----------------------------------------------1----
E|----------------------------------------------------
http://www.guitartabcreator.com
Guitar Tab Creator is intended to store guitar tab created through the tool. It currently does not support in-line text editing. Any text you place in here will be lost. If you need to comment on your tab, please use the "Tab Notes" section located below.