01. - W Pracy

(/) Slide Up  (\) Slide Down  (h) Hammer On  (p) Pull Off  (b) Bend (r) Release (v) Vibrato

1.

E|-----2-------2-------2-------2---
B|---3---3---3---3---3---3---3---3-
G|---------------------------------
D|-0-------0-------0-------0-------
A|---------------------------------
E|---------------------------------

E|-----0-------0-------0-------0---
B|---3---3---3---3---3---3---3---3-
G|---------------------------------
D|-0-------0-------0-------0-------
A|---------------------------------
E|---------------------------------

E|-----3-------3-------3-------3---
B|---3---3---3---3---3---3---3---3-
G|---------------------------------
D|-0-------0-------0-------0-------
A|---------------------------------
E|---------------------------------

E|---5-2-----5-2-----5-2-----5-2---
B|-------3-------3-------3-------3-
G|---------------------------------
D|-0-------0-------0-------0-------
A|---------------------------------
E|---------------------------------
http://www.guitartabcreator.com
Guitar Tab Creator is intended to store guitar tab created through the tool. It currently does not support in-line text editing. Any text you place in here will be lost. If you need to comment on your tab, please use the "Tab Notes" section located below.