cocaine solo licks

(/) Slide Up  (\) Slide Down  (h) Hammer On  (p) Pull Off  (b) Bend (r) Release (v) Vibrato
E|------------------------------------------------
B|-------8--10--10b12--10--8--10--10--10p8-----8--
G|--7/9-------------------------------------9-----
D|------------------------------------------------
A|------------------------------------------------
E|------------------------------------------------



E|-----------------------------
B|-----------------------------
G|-------7b7----------------7--
D|--7h9-------9--9--7h9--9-----
A|-----------------------------
E|-----------------------------



E|----------------10----------------------------------------------------------------------
B|-----8-10-10b12----10b12-10-8-10-10p8---8-8---------------------------------------------
G|-7/9----------------------------------9-----9-7-9p7---7-7---7---------------------------
D|----------------------------------------------------9-----9---9-7-9---------------5-5---
A|--------------------------------------------------------------------9/10-7-5v-7-7-----7-
E|----------------------------------------------------------------------------------------



E|----------12------15b16--15--12-----------------12--------------------------------
B|--12--15------12-----------------15--15b17--15------15--12--15--------------------
G|----------------------------------------------------------------14b15--12--14p12--
D|----------------------------------------------------------------------------------
A|----------------------------------------------------------------------------------
E|----------------------------------------------------------------------------------



E|-------------------------
B|-------------------------
G|---------------5--5------
D|--5v--5h7--7v--------7v--
A|-------------------------
E|-------------------------



E|--
B|--
G|--
D|--
A|--
E|--
http://www.guitartabcreator.com
Guitar Tab Creator is intended to store guitar tab created through the tool. It currently does not support in-line text editing. Any text you place in here will be lost. If you need to comment on your tab, please use the "Tab Notes" section located below.