Song 1 By K & P

(/) Slide Up  (\) Slide Down  (h) Hammer On  (p) Pull Off  (b) Bend (r) Release (v) Vibrato

E|---------------------
B|---------------------
G|---------------------
D|--2--2---------------
A|--2-----2--1--0------
E|--0--------------3v--



E|--------------
B|--------------
G|--------------
D|-2-2----------
A|-2---2-1-0----
E|-0---------3v-



E|-------------------------
B|-------------------------
G|-------5-5-5-------7-7-7-
D|-2-2-2-5-5-5-5-5-5-7-7-7-
A|-2-2-2-3-3-3-5-5-5-5-5-5-
E|-0-0-0-------3-3-3-------



E|--------------------------------------------------
B|----------------------------------12h15p12-15/19v-
G|----------------12h14p12-12h15p12-----------------
D|-14b15-12h14p12-----------------------------------
A|--------------------------------------------------
E|--------------------------------------------------



E|----------------------------------------------------20-20-19-17-20-20-19-17-20-20-19-17-20-20-19-17-
B|-17-17-19-17-20-17-19-17-20-17-19-17-20-17-19-17-20-------------------------------------------------
G|----------------------------------------------------------------------------------------------------
D|----------------------------------------------------------------------------------------------------
A|----------------------------------------------------------------------------------------------------
E|----------------------------------------------------------------------------------------------------



E|-12-12-15-12----12-12-15-12----12-12-15-12----12-12-15-12-------------------------------------------
B|-------------15-------------15-------------15-------------15-12-15-15-12-15-15-12-15-15-12-15-15-12-
G|----------------------------------------------------------------------------------------------------
D|----------------------------------------------------------------------------------------------------
A|----------------------------------------------------------------------------------------------------
E|----------------------------------------------------------------------------------------------------



E|-----------------------------------------------------------
B|-----------------------------------------------------------
G|-15-15-14-12-15-15-14-12-15-15-14-12-15-15-14-12-----------
D|-------------------------------------------------14-12-14v-
A|-----------------------------------------------------------
E|-----------------------------------------------------------



E|-0-0-3-2-
B|-0-1-0-3-
G|-0-0-0-2-
D|-2-2-0-0-
A|-2-3-2---
E|-0---3---



E|---------------------------------
B|---------------------------------
G|-------------5---------------7---
D|-----2-----5---5-----5-----7---7-
A|---2---2-3---------5---5-5-------
E|-0---------------3---------------



E|-------------------------------------------------
B|-------------------------------------------------
G|-------------------17----------------------19----
D|-------14-------17----17-------17-------19----19-
A|----14----14-15-------------17----17-17----------
E|-12----------------------15----------------------



E|-0-0-0-0-0-0-0-0-0-0-3-3-3-3-3-2-2-2-3-2-0-2-
B|-0-0-0-0-0-1-1-1-1-1-0-0-0-0-0-3-3-3-3-3-3-3-
G|-0-0-0-0-0-0-0-0-0-0-0-0-0-0-0-2-2-2-2-2-2-2-
D|-2-2-2-2-2-2-2-2-2-2-0-0-0-0-0-0-0-0-0-0-0-0-
A|-2-2-2-2-2-3-3-3-3-3-2-2-2-2-2---------------
E|-0-0-0-0-0-----------3-3-3-3-3---------------



E|-3-2-0-2-
B|-3-3-3-3-
G|-2-2-2-2-
D|-0-0-0-0-
A|---------
E|---------



E|------------------------
B|------------------------
G|---------5---------7----
D|----2----5----5----7----
A|----2----3----5----5----
E|----0---------3---------



E|-------------------------------5h7h8-7h8h10-8h10h12-10h12h14-12h14h15---
B|-------------------------5h7h8------------------------------------------
G|-------------------4h5h7------------------------------------------------
D|-------------4h5h7------------------------------------------------------
A|-------3h5h7------------------------------------------------------------
E|-3h5h7------------------------------------------------------------------



E|-12-15b17v-15b16b15p12---------------------------
B|-----------------------15b16b15p12---------------
G|-----------------------------------14b15b14p12---
D|-------------------------------------------------
A|-------------------------------------------------
E|-------------------------------------------------



E|-----------------------------------------
B|-----------------------------------------
G|----12----12\11----12----14b15b14p12-----
D|-14----14-------14----14-------------14v-
A|-----------------------------------------
E|-----------------------------------------



E|-------------------------------------------
B|-------------------------------------15b17-
G|----12----12\11----12----14b15b14p12-------
D|-14----14-------14----14-------------------
A|-------------------------------------------
E|-------------------------------------------



E|-------------------------------------------------------------------------------------------------
B|-------------------------------------------------------------------------12-12-12-12-15-15-15-15-
G|-12-12-12-12-12-12-12-12-11-11-11-11-11-11-11-11-12-12-12-12-14-14-14-14-------------------------
D|-------------------------------------------------------------------------------------------------
A|-------------------------------------------------------------------------------------------------
E|-------------------------------------------------------------------------------------------------



E|-15-15-15-15-12-12-12-12-7-7-7-7-3-3-3-3-
B|-----------------------------------------
G|-----------------------------------------
D|-----------------------------------------
A|-----------------------------------------
E|-----------------------------------------



E|-0-5-7-8-0-5-7-8-0-7-8-10-0-7-8-10-0-8-10-12-0-8-10-12-0-10-12-14-0-10-12-14-0-12-14-15-0-12-14-15---
B|-----------------------------------------------------------------------------------------------------
G|-----------------------------------------------------------------------------------------------------
D|-----------------------------------------------------------------------------------------------------
A|-----------------------------------------------------------------------------------------------------
E|-----------------------------------------------------------------------------------------------------



E|-0-14-15-17-0-14-15-17-0-15-17-19-0-17-19-0-17-19-20-0-17-19-20b21b20p17-15b16b15p12-------------
B|-------------------------------------------------------------------------------------15b16b15p12-
G|-------------------------------------------------------------------------------------------------
D|-------------------------------------------------------------------------------------------------
A|-------------------------------------------------------------------------------------------------
E|-------------------------------------------------------------------------------------------------



E|--------------------
B|--------------------
G|--14b15b14p12-------
D|---------------14v--
A|--------------------
E|--------------------
http://www.guitartabcreator.com
Guitar Tab Creator is intended to store guitar tab created through the tool. It currently does not support in-line text editing. Any text you place in here will be lost. If you need to comment on your tab, please use the "Tab Notes" section located below.