Sal Paradise - Futures GUITAR TAB

(/) Slide Up  (\) Slide Down  (h) Hammer On  (p) Pull Off  (b) Bend (r) Release (v) Vibrato

Intro:

E|--3---6---4---3
B|--4---6---4---4
G|--5---8---5---5 X 2
D|--5---8---6---5
A|--3---6---6---3
E|----------4----


Verse:

E|--3---6---4---3
B|--4---6---4---4
G|--5---8---5---5 X 4 (Strum chords once for first 2 bars, full strumming for last 2)
D|--5---8---6---5
A|--3---6---6---3
E|----------4----


Chorus:

E|--4---6---3---6-------4---6---6
B|--4---6---4---6-------4---6---6
G|--5---8---5---8-------5---8---7 X 1 (Strum chords once)
D|--6---8---5---8-------6---8---8
A|--6---6---3---6-------6---6---8
E|--4-------------------4-------6


VERSE X4

CHORUS X2

Bridge:

E|--4---3---6---8
B|--4---4---6---9
G|--5---5---8---10 X 2
D|--6---5---8---10
A|--6---3---6---8
E|--4------------


Pre-Chorus:

E|--4---6---3---6-------4---6---6
B|--4---6---4---6-------4---6---6
G|--5---8---5---8-------5---8---7 X 1
D|--6---8---5---8-------6---8---8
A|--6---6---3---6-------6---6---8
E|--4-------------------4-------6


CHORUS X3


Ending Chord:

E|--4
B|--4
G|--5 (Strum once)
D|--6
A|--6
E|--4
Guitar Tab Creator is intended to store guitar tab created through the tool. It currently does not support in-line text editing. Any text you place in here will be lost. If you need to comment on your tab, please use the "Tab Notes" section located below.