Make Somebody Happy Solo

(/) Slide Up  (\) Slide Down  (h) Hammer On  (p) Pull Off  (b) Bend (r) Release (v) Vibrato
E|-------------------------------|----------------------------------------------------------|-----
B|--15/17----15--15--17--13------|------12--13--12----13--12--13--15--13--12h13p12------12--|-----
G|---------------------------14--|--12----------------------------------------------14------|-----
D|-------------------------------|----------------------------------------------------------|-----
A|-------------------------------|----------------------------------------------------------|-----
E|-------------------------------|----------------------------------------------------------|-----



E|-------------------------------------------------|---------------------------------|--
B|--12--12-----------------------------------------|---------------------------------|--
G|----------14--14--12--12-------------------------|---------------------------------|--
D|--------------------------14--14--12------12/14--|---------------------------------|--
A|--------------------------------------15---------|--15--14--12--14--15--12p10------|--
E|-------------------------------------------------|-----------------------------12--|--



E|---------------------------------------------------------|--
B|---------------------------------------------------------|--
G|---------------------------------------------------------|--
D|----------------------------------------------12--10h12--|--
A|--12--14--15--14--15--14--15--14--12--14--15-------------|--
E|---------------------------------------------------------|--



E|-----------------------------|--
B|-----------------------------|--
G|-----------------------------|--
D|-----------------------------|--
A|--10h12--10------12--10--12--|--
E|-------------12--------------|--



E|------15--13--12----------------12--|------15--17--15--13--12--------------12----------|--
B|--------------------15--13--15------|--------------------------15--13--15------13--15--|--
G|--12--------------------------------|--12----------------------------------------------|--
D|------------------------------------|--------------------------------------------------|--
A|------------------------------------|--------------------------------------------------|--
E|------------------------------------|--------------------------------------------------|--



E|------------15--15--15----19--19----15--15------------|------12--13--15--|--
B|--15--15--------------------------------------15--15--|--15--------------|--
G|------------------------------------------------------|------------------|--
D|------------------------------------------------------|------------------|--
A|------------------------------------------------------|------------------|--
E|------------------------------------------------------|------------------|--



E|--15b17--12----------|--15b17--15b17--15b17--15b17--|--12--15--12------12---------|--
B|-------------13------|------------------------------|--------------15------13-----|--
G|-----------------14--|------------------------------|--------------------------14\|--
D|---------------------|------------------------------|-----------------------------|--
A|---------------------|------------------------------|-----------------------------|--
E|---------------------|------------------------------|-----------------------------|--



E|--------------------------------------------------------------12--12----13--13--13--13\|--
B|--------------------------------12--12----13--13----15--15-----------------------------|--
G|------------12--12----14--14-----------------------------------------------------------|--
D|--12--12-------------------------------------------------------------------------------|--
A|---------------------------------------------------------------------------------------|--
E|---------------------------------------------------------------------------------------|--



E|--12--13--13--14--14--14--15--|--15----17--17----19--19----20b21--|--
B|------------------------------|-----------------------------------|--
G|------------------------------|-----------------------------------|--
D|------------------------------|-----------------------------------|--
A|------------------------------|-----------------------------------|--
E|------------------------------|-----------------------------------|--



E|------17--19--20----20b21----20b21--|--19--15-------------|--
B|--20--------------------------------|----------15--12-----|--
G|------------------------------------|------------------12/|--
D|------------------------------------|---------------------|--
A|------------------------------------|---------------------|--
E|------------------------------------|---------------------|--



E|------------------12------------------12----------------12----------|--
B|------12--13--15--------15--13------------15--13------------15--13--|--
G|--14----------------------------14----------------14----------------|--
D|--------------------------------------------------------------------|--
A|--------------------------------------------------------------------|--
E|--------------------------------------------------------------------|--



E|--12----------------12----------------|--12--13p12------12----12--12--------------------12--
B|------15--13------------15--13--------|-------------15------------------15b17----15b17------
G|--------------14----------------14----|-----------------------------------------------------
D|--------------------------------------|-----------------------------------------------------
A|--------------------------------------|-----------------------------------------------------
E|--------------------------------------|-----------------------------------------------------



E|--15--17--17h19--19--19--19b20--|--20--19--17--19--20--19----|--20--19--17--19--20--19--|--
B|--------------------------------|----------------------------|--------------------------|--
G|--------------------------------|----------------------------|--------------------------|--
D|--------------------------------|----------------------------|--------------------------|--
A|--------------------------------|----------------------------|--------------------------|--
E|--------------------------------|----------------------------|--------------------------|--



E|--20--19--17--19--20--19--|--20b21----20b21----20--17--|--
B|--------------------------|----------------------------|--
G|--------------------------|----------------------------|--
D|--------------------------|----------------------------|--
A|--------------------------|----------------------------|--
E|--------------------------|----------------------------|--



E|---------------------------------------------------|--
B|--15b17----17--17----17--17----16--16----15--15----|--
G|---------------------------------------------------|--
D|---------------------------------------------------|--
A|---------------------------------------------------|--
E|---------------------------------------------------|--



E|----------------------------------------------------------------------------------|--
B|--13--13--13----12--12------------------------------------------------------------|--
G|--------------------------14--14----12--12----------------------------------------|--
D|----------------------------------------------14--14----12--12--------12--14------|--
A|------------------------------------------------------------------15----------12--|--
E|----------------------------------------------------------------------------------|--



E|-----------------------------------|--------------------------------------------|--
B|-----------------------------------|--------------13--13--13--13--15--13--15----|--
G|-----------------------------------|--14--12--14--------------------------------|--
D|--------------------12--14---------|--------------------------------------------|--
A|--12--15--15----15----------12\10--|--------------------------------------------|--
E|-----------------------------------|--------------------------------------------|--



E|---------------------------------------------------------|--
B|--------------12--12--12--13--15-------------------------|--
G|--14--12--14----------------------14--12--14--12---------|--
D|--------------------------------------------------14\10--|--
A|---------------------------------------------------------|--
E|---------------------------------------------------------|--



E|----------------------------------------------------15------13--12----|--
B|--------------------------------------12--12--13----------------------|--
G|------------12--12--14------14--14------------------------------------|--
D|--12--12--------------------------------------------------------------|--
A|----------------------------------------------------------------------|--
E|----------------------------------------------------------------------|--



E|------15--13--12----|--15--17--15--17--15--17--15--13--12------12h13p12------12--|--
B|--13----------------|--------------------------------------13------------13------|--
G|--------------------|------------------------------------------------------------|--
D|--------------------|------------------------------------------------------------|--
A|--------------------|------------------------------------------------------------|--
E|--------------------|------------------------------------------------------------|--



E|--17--19--19----17--19--19----19h20p19p17h19----17h19----17h19----17h19--20b21----20b21--|--
B|-----------------------------------------------------------------------------------------|--
G|-----------------------------------------------------------------------------------------|--
D|-----------------------------------------------------------------------------------------|--
A|-----------------------------------------------------------------------------------------|--
E|-----------------------------------------------------------------------------------------|--



E|--20b21--20--18------20b21----20b21--|--
B|-----------------20------------------|--
G|-------------------------------------|--
D|-------------------------------------|--
A|-------------------------------------|--
E|-------------------------------------|--



E|--12--13--12--------------12\7----|--15--15----17--17--17----19--19----20--20--|--
B|--------------15--13--15----------|--------------------------------------------|--
G|----------------------------------|--------------------------------------------|--
D|----------------------------------|--------------------------------------------|--
A|----------------------------------|--------------------------------------------|--
E|----------------------------------|--------------------------------------------|--



E|--21--21----20h21----20h21----20h21----20h21--20--|-----------|--
B|--------------------------------------------------|-----------|--
G|--------------------------------------------------|--16h17----|--
D|--------------------------------------------------|-----------|--
A|--------------------------------------------------|-----------|--
E|--------------------------------------------------|-----------|--



E|--12--13----12--13----12--13----12----------------------------------
B|--------------------------------------13--15------------------------
G|------------------------------------------------12--14----12h14p12--
D|--------------------------------------------------------------------
A|--------------------------------------------------------------------
E|--------------------------------------------------------------------
http://www.guitartabcreator.com
Guitar Tab Creator is intended to store guitar tab created through the tool. It currently does not support in-line text editing. Any text you place in here will be lost. If you need to comment on your tab, please use the "Tab Notes" section located below.