Full Moon

(/) Slide Up  (\) Slide Down  (h) Hammer On  (p) Pull Off  (b) Bend (r) Release (v) Vibrato
E|--------------------5--5--5h6p5---------5----------------------------------|--
B|-----6--8------------------------8---------8--6------10------8h10--8-------|--
G|--5--------7h9--------------------------------------------------------7h9--|--
D|---------------------------------------------------------------------------|--
A|---------------------------------------------------------------------------|--
E|---------------------------------------------------------------------------|--



E|-----------------------------------------------13----12----13--10------13----15--12------|--
B|--10------10--10h11p10--8------10--11--13--------------------------------------------15--|--
G|-----------------------------------------------------------------------------------------|--
D|-----------------------------------------------------------------------------------------|--
A|-----------------------------------------------------------------------------------------|--
E|-----------------------------------------------------------------------------------------|--



E|----------13--15b17r15p13--15--13----15b17r15p13--15--13----15b17r15p13--15--13--|-----
B|--13--15-------------------------------------------------------------------------|-----
G|---------------------------------------------------------------------------------|-----
D|---------------------------------------------------------------------------------|-----
A|---------------------------------------------------------------------------------|-----
E|---------------------------------------------------------------------------------|-----



E|-------------------------------------------------------------------------------------|--
B|-------------------------------------------------------------------------------------|--
G|------10--12-----------------------------------------12--12h14----12--10--10--10h12--|--
D|--10----------12h14------12p10-----------------10------------------------------------|--
A|--------------------------------12p10\8p10/12----------------------------------------|--
E|-------------------------------------------------------------------------------------|--



E|--------------------------------------------------------------------------|--
B|--10----------------------------------10----------------------------------|--
G|------12--10------------------9\10--------12-------------14--14h15p14p12--|--
D|--------------------------12------------------12h14-----------------------|--
A|------------------10--12--------------------------------------------------|--
E|--------------------------------------------------------------------------|--



E|------------------12h13----12--13-------------------------12--13--12--13--12--13--|--
B|----------13-----------------------15b17--15----------15--------------------------|--
G|--14--15------------------------------------------14------------------------------|--
D|----------------------------------------------------------------------------------|--
A|----------------------------------------------------------------------------------|--
E|----------------------------------------------------------------------------------|--



E|--13b15--13b15--13b15--13b15--13b15--13b15------10--13--|--
B|--------------------------------------------------------|--
G|--------------------------------------------------------|--
D|--------------------------------------------------------|--
A|--------------------------------------------------------|--
E|--------------------------------------------------------|--



E|-10-13--10-13-10----10---------10---------------------------|-
B|-----------------13-----13-10-----13-10---------------------|-
G|------------------------------------------12b14r12-10----10-|-
D|------------------------------------------------------12----|-
A|------------------------------------------------------------|-
E|------------------------------------------------------------|-



E|---------------------------------|-
B|---------------------------------|-
G|-12b14r12p10h12---12b14r12p10h12-|-
D|---------------------------------|-
A|---------------------------------|-
E|---------------------------------|-



E|-
B|-
G|-
D|-
A|-
E|-
http://www.guitartabcreator.com
Guitar Tab Creator is intended to store guitar tab created through the tool. It currently does not support in-line text editing. Any text you place in here will be lost. If you need to comment on your tab, please use the "Tab Notes" section located below.