Young Enough - Middle solo Open D

(/) Slide Up  (\) Slide Down  (h) Hammer On  (p) Pull Off  (b) Bend (r) Release (v) Vibrato


E|---------12--|---------12-----------------|--5--3--|--
B|--10/12------|--10/12------12\10----------|--5--3--|--
G|-------------|--------------------12------|--5--3--|--
D|-------------|------------------------12--|--5--3--|--
A|-------------|----------------------------|--5--3--|--
E|-------------|----------------------------|--5--3--|--



E|---------12------12--16--12--19--14/16--12--12--12\10------12--
B|--10/12------12----------------------------------------12------
G|---------------------------------------------------------------
D|---------------------------------------------------------------
A|---------------------------------------------------------------
E|---------------------------------------------------------------



E|--3-5------|--3/5--|--0--0--0--0--0--|--5/7--5--0--|--
B|--3-5------|--3-5--|--0--2--5--7--9--|--5-7--5--0--|--
G|--3-5------|--3-5--|--0--0--0--0--0--|--5-7--5--0--|--
D|--3-5------|--3-5--|-----------------|--5-7--5--0--|--
A|--3-5------|--3-5--|-----------------|--5-7--5--0--|--
E|--3/5------|--3-5--|-----------------|--5-7--5--0--|--
http://www.guitartabcreator.com
Guitar Tab Creator is intended to store guitar tab created through the tool. It currently does not support in-line text editing. Any text you place in here will be lost. If you need to comment on your tab, please use the "Tab Notes" section located below.