Young Enough - intro- open D

(/) Slide Up  (\) Slide Down  (h) Hammer On  (p) Pull Off  (b) Bend (r) Release (v) Vibrato


E|-----------------------|-------------------------|-------------------------|-------------------
B|-----------------------|-------------------------|-------------------------|-------------------
G|-----------------------|-------------------------|-------------------------|-------------------
D|-----------0-----0--0--|-------0-----0-----0--0--|-------0-----0-----0--0--|-------0-----0-----
A|-----------------------|-------------------------|-------------------------|-------------------
E|--12\2--0-----0--------|--1/4-----0-----0--------|--1/4-----0-----0--------|--1/4-----0-----0--



E|--5--3--|--
B|--5--3--|--
G|--5--3--|--
D|--5--3--|--
A|--5--3--|--
E|--5--3--|--



E|--0--0----|--0--0--0--|--0--0--0--|--0--5--3--
B|--0--0----|--0--0--0--|--0--0--0--|--0--5--3--
G|--0--0----|--0--0--0--|--0--0--0--|--0--5--3--
D|--0--0----|--0--0--0--|--0--0--0--|--0--5--3--
A|--0--0----|--0--0--0--|--0--0--0--|--0--5--3--
E|--0--0----|--0--0--0--|--0--0--0--|--0--5--3--



E|---------12--|---------12-----------------|--5--3--|--
B|--10/12------|--10/12------12\10----------|--5--3--|--
G|-------------|--------------------12------|--5--3--|--
D|-------------|------------------------12--|--5--3--|--
A|-------------|----------------------------|--5--3--|--
E|-------------|----------------------------|--5--3--|--



E|---------12------12--16--12---------12-----------------|--5--3--|--
B|--10/12------12--------------10/12------12\10----------|--5--3--|--
G|-----------------------------------------------12------|--5--3--|--
D|---------------------------------------------------12--|--5--3--|--
A|-------------------------------------------------------|--5--3--|--
E|-------------------------------------------------------|--5--3--|--
http://www.guitartabcreator.com
Guitar Tab Creator is intended to store guitar tab created through the tool. It currently does not support in-line text editing. Any text you place in here will be lost. If you need to comment on your tab, please use the "Tab Notes" section located below.