The Angel, The Demon and The Human In Between

(/) Slide Up  (\) Slide Down  (h) Hammer On  (p) Pull Off  (b) Bend (r) Release (v) Vibrato


E|--------------------------------------------------------------
B|--------------------------------------------------------------
G|--------------------------------------------------------------
D|--------------------------------------------------------------
A|--------------------------------------------------------------
E|--0--12--15--0--14--0--10--12--0--15--17--14--15--14--10--12--



E|----------------------------------------
B|----------------------------------------
G|----------------------------------------
D|--0--0--0--0--8--8--8--8--10--10--5--5--
A|--0--0--0--0--8--8--8--8--10--10--5--5--
E|--0--0--0--0--8--8--8--8--10--10--5--5--



E|------------------------------------------------------------------------------------------------------------
B|------------------------------------------------------------------------------------------------------------
G|------------------------------------------------------------------------------------------------------------
D|----------------------------------------------------------------------------------------------10--7------7--
A|--0--0--x--8-----7-----3--5-----8--10--7--8--7--3--5--0--0--x--8-----7-----3--5-----8--10--7---------10-----
E|--0--0--x-----0-----0--------0------------------------0--0--x-----0-----0--------0--------------------------



E|---------------------------------------------------------------------------------------------------------------
B|---------------------------------------------------------------------------------------------------------------
G|---------------------------------------------------------------------------------------------------------------
D|----------------------------------------------------------------------------------------------10--7------7-----
A|--8--8--x--8-----7-----3--5-----8--10--7--8--7--3--5--8--8--x--8-----7-----3--5-----8--10--7---------10--------
E|--8--8--x-----8-----8--------0------------------------8--8--x-----8-----8--------0-----------------------------



E|----------------------------------------------------------------------------------------------------------------
B|----------------------------------------------------------------------------------------------------------------
G|--------------------------------------------------------------------------------------------------10--9---------
D|---------------------------------------------------------------------------------------------------------10--7--
A|--10--10--x--8------7------3--5-----8--10--7--8--7--3--5--5--5--x--8-----7-----3--5-----8--10--7----------------
E|--10--10--x-----10-----10--------0------------------------5--5--x-----5-----5--------0--------------------------



E|--
B|--
G|--
D|--
A|--
E|--



E|-------------------------------------------------------------------------------------------------------------------
B|-------------------------------------------------------------------------------------------------------------------
G|-------------------------------------------------------------------------------------------------------------------
D|-------------------------------------------------------------------------------------------------------------------
A|--0--0--x--12-----10-----7--8-----12--13--10--12--10--7--8--0--x--12-----10-----7--8-----12--13--10--12--10--7--8--
E|--0--0--x------0------0--------0----------------------------0--x------0------0--------0----------------------------



E|------------------------------------------------------------------------------------------------------------------------
B|------------------------------------------------------------------------------------------------------------------------
G|------------------------------------------------------------------------------------------------------------------------
D|--------------------------------------------------------------------------------------------------------14--10------10--
A|--8--8--x--12-----10-----7--8-----12--13--10--12--10--7--8--8--8--x--12-----10-----7--8-----12--13--10----------12------
E|--8--8--x------8------8--------0----------------------------8--8--x------8------8--------0------------------------------



E|--
B|--
G|--
D|--
A|--
E|--
http://www.guitartabcreator.com
Guitar Tab Creator is intended to store guitar tab created through the tool. It currently does not support in-line text editing. Any text you place in here will be lost. If you need to comment on your tab, please use the "Tab Notes" section located below.