Sleeptight solo

(/) Slide Up  (\) Slide Down  (h) Hammer On  (p) Pull Off  (b) Bend (r) Release (v) Vibrato


E|-----------------------------------------------------------------------------------------------------
B|-----------------------------------------------------------------------------------------------------
G|-----------------------------------------------------------------------------------------------------
D|-----------------------------------------------------------------------------------------------------
A|-----------------------------------------------------------------------------------------------------
E|--2--2--2--4--4--4--5--5--4--4--4--5--5--5--7--7--2--2--2--4--4--4--5--5--8--8--8--7--7--7--5--5-----



E|-------------------------------------------------------------------------------------------------------
B|-------------------------------------------------------------------------------------------------------
G|-------------------------------------------------------------------------------------------------------
D|-------------------------------------------------------------------------------11--11--11--9--9--9-----
A|-------------------------------------------------------------------------------------------------------
E|--2--2--2--4--4--4--5--5--4--4--4--5--5--5--7--7--9--9--9--11--11--11--12--12--------------------------



E|---------------------------------------------------------------------------------------------------
B|---------------------------------------------------------------------------------------------------
G|---------------------------------------------------------------------------------------------------
D|--9------------------------------------------------------------------------------------------------
A|-----11--9------------11--9------------------------11--9------------------------11--9--------------
E|------------12--9--9---------12--11--12--12--9--9---------12--11--12--12--9--9---------12--11--12--



E|---------------------------------------------------------------------------------------------------
B|------------------------------------------------------------------------12--11--12--11--9----------
G|------------------------------------------------------------11--12--12---------------------12--11--
D|--------------------------------------9b11--11--11--11--11-----------------------------------------
A|------------11--9--------------9--11---------------------------------------------------------------
E|--12--9--9---------12--11--12----------------------------------------------------------------------
http://www.guitartabcreator.com
Guitar Tab Creator is intended to store guitar tab created through the tool. It currently does not support in-line text editing. Any text you place in here will be lost. If you need to comment on your tab, please use the "Tab Notes" section located below.