Pillowforts

(/) Slide Up  (\) Slide Down  (h) Hammer On  (p) Pull Off  (b) Bend (r) Release (v) Vibrato


E|-----------------
B|--7--3--3--------
G|--5--5--2--------
D|-----------------
A|--7--5--3--3--5--
E|--7--5--3--3--5--



E|-----7--------
B|--7--5--3--3--
G|--5-----5--2--
D|--------------
A|--7--7--5--3--
E|--7--7--5--3--



E|--------------------
B|--------------------
G|--2-----------------
D|-----0--------------
A|--------0-----------
E|-----------3--0--3--
http://www.guitartabcreator.com
Guitar Tab Creator is intended to store guitar tab created through the tool. It currently does not support in-line text editing. Any text you place in here will be lost. If you need to comment on your tab, please use the "Tab Notes" section located below.