Idea 1

E|--------------------------------------------0-----------------------------------------------0-----]
B|--7--------7--------7-----7--------7--------------7--------7--------7-----7--------7--------------]
G|-----4--------4--------------4--------4--------------4--------4--------------4--------4-----------]
D|--------5--------5-----5--------5--------5-----5--------5--------5-----5--------5--------5-----5--]
A|--------------------------------------------------------------------------------------------------]
E|--------------------------------------------------------------------------------------------------]

E|--------------------------------------------------------------------------------------------------]
B|--5--------5--------5-----5--------5--------5-----5--------5--------5-----5--------5--------5-----]
G|-----2--------2--------------2--------2--------------2--------2--------------2--------2-----------]
D|--------4--------4-----4--------4--------4--------------4--------4-----4--------4--------4-----4--]
A|-----------------------------------------------0--------------------------------------------------]
E|--------------------------------------------------------------------------------------------------]
Guitar Tab Creator is intended to store guitar tab created through the tool. It currently does not support in-line text editing. Any text you place in here will be lost. If you need to comment on your tab, please use the "Tab Notes" section located below.