slipstream part 2 (acoustic)

(/) Slide Up  (\) Slide Down  (h) Hammer On  (p) Pull Off  (b) Bend (r) Release (v) Vibrato

E|--------------------------------------------------------------
B|--------------------------------------------------------0-----
G|-----------0--------------------------4--------------2-----0--
D|--------4-----4-----------4--------4-----4--------4-----------
A|-----2-----------2-----2--------2-----------2--0--------------
E|--0-----------------3--------3--------------------------------



E|-----------------------------------------------------------------
B|-----------------------------------------------------------------
G|-----------0--------------------------4-----------2--------0-----
D|--------4-----4-----------4--------4-----4-----------4--------4--
A|-----2-----------2-----2--------2-----------2--0-----------------
E|--0-----------------3--------3--------------------------2--------



E|--------------------2--------0------
B|--2--------5--------0--------0------
G|--4--------4--------2--------1------
D|--2--------2--------2--------2------
A|--4--------3--------0--------2------
E|-----------------------------0------



E|--------------------------
B|--2--------------------2--
G|--4--------3------3----4--
D|--2--------4------4----4--
A|--4--------4------2----2--
E|-----------2------4----0--
http://www.guitartabcreator.com
Guitar Tab Creator is intended to store guitar tab created through the tool. It currently does not support in-line text editing. Any text you place in here will be lost. If you need to comment on your tab, please use the "Tab Notes" section located below.