quick

(/) Slide Up  (\) Slide Down  (h) Hammer On  (p) Pull Off  (b) Bend (r) Release (v) Vibrato


E|-----------------------------------------------------------------
B|-----------------------------------------------------------------
G|-----------------------------------------------------------------
D|-----------------------------------------------------------------
A|-----------------------------------------------------------------
E|-1-1-1-1-1-1-1-1-1-1-1-1-1-1-1-1-2-2-2-2-2-2-2-2-2-2-2-2-2-2-2-2-



E|-----------------------------------------------------------------
B|-----------------------------------------------------------------
G|-----------------------------------------------------------------
D|-----------------------------------------------------------------
A|-----------------------------------------------------3-3-3-------
E|-4-4-4-4-4-4-4-4-4-4-4-4-4-4-4-4-5-5-5-5-5-5-5-5-5-5-------0-0-0-



E|-------------------------------------------------------
B|-------------------------------------------------------
G|----------4------------4------------4------------4-----
D|----------2------------2------------2------------2---5-
A|-2--------0---2--------3---2--------0---2--------3---5-
E|---3-2-0--0-----3-2-3--3-----3-2-0--0-----3-2-3--3---5-



E|------------------
B|------------------
G|---8-7-----5-4----
D|-6-6-6---3-3-3--5-
A|-6-6-6---3-3-3--5-
E|-6-6-6---3-3-3--5-



E|-------------------------------------------
B|-------------------------------------------
G|-------------------------------------------
D|-1---2---1---2---1---2---1---2---1---2---3-
A|-1---2---1---2---1---2---1---2---1---2---3-
E|-1---2---1---2---1---2---1---2---1---2---3-



E|-----------------------------------------
B|-----------------------------------------
G|-6----9----8----3------6----9----8----15-
D|-----------------------------------------
A|-4----7----6----1------4----7----6----13-
E|-----------------------------------------



E|-
B|-
G|-
D|-
A|-
E|-
http://www.guitartabcreator.com
Guitar Tab Creator is intended to store guitar tab created through the tool. It currently does not support in-line text editing. Any text you place in here will be lost. If you need to comment on your tab, please use the "Tab Notes" section located below.