patterns

(/) Slide Up  (\) Slide Down  (h) Hammer On  (p) Pull Off  (b) Bend (r) Release (v) Vibrato
E|-------------------------------------------------
B|-------------------------------------------------
G|-------------------------------------------------
D|-------------------------------------------------
A|-------------------------------------------------
E|-3--2--0--2---0---5-5-3-3-0--5---0--3--2--0--5---



E|--------------------------------------------
B|--------------------------------------------
G|----------4----------------5--------------4-
D|--------------------------------------------
A|----------2----------------3--------------2-
E|-3--2--0------0--5-5-3-3-0-----0--3--2--0---



E|----------------------------
B|----------------------------
G|----------------------------
D|----------------------------
A|----------------------------
E|--3--2--0--2----5--2--0--2--



E|-------------------------------------------------------------------
B|--13------15----10------10-----------------------------------------
G|--12------14----9-------9------------------------------------------
D|--10------0-----0-------9-------5----0----2----8--7----------8--5--
A|--10------0-----0-------9-------5----0----2----8--7----------8--5--
E|--10------0-----0-------9-------5----0----2----8--7----------8--5--



E|-----
B|-----
G|--7--
D|-----
A|--5--
E|-----



E|------------------------------------------
B|------------------------------------------
G|------------------------------------------
D|------------------------------------------
A|------------------------------------------
E|--3--2--0--2----5--3--0--2----3--2--0--5--



E|-------------------------------------------------
B|-------------------------------------------------
G|-------------------------------------------------
D|-------------------------------------------------
A|-------------------------------------------------
E|--3--2--0--2----0--5--3--0--5--3--0--5--3--0--0--



E|-12-12-12-----------------------------------------------------------------------
B|----------10-10-10-9-9-9-----------------------13-13-12-12-10-10-9-10-9---------
G|----------------------------------10-10-10-9-9--------------------------10-9-12-
D|-------------------------12-12-12-----------------------------------------------
A|--------------------------------------------------------------------------------
E|--------------------------------------------------------------------------------



E|-12-12-12-----------------------------------------------------------------------
B|----------10-10-10-9-9-9-----------------------13-13-12-12-10-10-15-15-15-15-15-
G|----------------------------------10-10-10-9-9----------------------------------
D|-------------------------12-12-12-----------------------------------------------
A|--------------------------------------------------------------------------------
E|--------------------------------------------------------------------------------



E|-------------------------------16-
B|----17------19------14------------
G|----------------------------16----
D|----------------------------------
A|----------------------------------
E|-14------14------14------14-------



E|---------------------------------------------------------------------------------
B|--12----------12------10------------10------10-----------------------------------
G|--11----------11------9-------------9-------7------------------------------------
D|--9-----------10------10------------0-------0---------------7--5--0--7--5--0--7--
A|--9-----------10------10------------0-------0---------------7--5--0--7--5--0--7--
E|--9-----------10------10------------0-------0---------------7--5--0--7--5--0--7--



E|------
B|--10--
G|--9---
D|--9---
A|--7---
E|--7---
http://www.guitartabcreator.com
Guitar Tab Creator is intended to store guitar tab created through the tool. It currently does not support in-line text editing. Any text you place in here will be lost. If you need to comment on your tab, please use the "Tab Notes" section located below.