One In The Same

(/) Slide Up  (\) Slide Down  (h) Hammer On  (p) Pull Off  (b) Bend (r) Release (v) Vibrato
E|--17--16--15--16--
B|------------------
G|------------------
D|------------------
A|------------------
E|------------------



E|--12--------------------------------12----------------------------
B|------10--9----------13-----12----------10--9----------13-----12--
G|-----------------12------9-------------------------12------9------
D|------------------------------------------------------------------
A|------------------------------------------------------------------
E|------------------------------------------------------------------



E|-----------------------------------------------------------
B|-----------------------------------------------------------
G|-----------------------------------------------------------
D|-----------------------------------------------------------
A|--7--8-----5--7------7--8-----5--7------7--8-----5--7----1/
E|--------0------------------0------------------0------------



E|----------------------------------------------------------------------------
B|----------------------------------------------------------------------------
G|--14------13------12------9----7------14------13------12------13----14--16--
D|----------------------------------------------------------------------------
A|--12------11------10------7----5------12------11------10------11----12--14--
E|----------------------------------------------------------------------------



E|-----------------------------------------------------------------------------
B|-----------------------------------------------------------------------------
G|-----------------------------------------------------------------------------
D|-----------------------------------------------------------------------------
A|--7--8-----5--7------7--8-----5--7------7--8-----5--7------7--8-----5--7-----
E|--------0------------------0------------------0------------------0-----------



E|--------------------------------------------------------------------------------------
B|--------------------------------------------------------------------------------------
G|--------------------------------------------------------------------------------------
D|--------------------------------------------------------------------------------------
A|--7--8-----5--7------7--8-----5--7------7--8-----5--7------------------------5--6-----
E|--------0------------------0------------------0------------3--4--5--5--6--7-----------



E|-----------------------------------------------------------------------------------
B|-----------------------------------------------------------------------------------
G|-----------------------------------------------------------------------------------
D|-----------------------------------------------------------------------------------
A|--7--8-----5--7------7--8-----5--7------7--8-----5--7------7--6--5-----------------
E|--------0------------------0------------------0---------------------7--5--0--3-----



E|-----------------------------------------------------------
B|-----------------------------------------------------------
G|-----------------------------------------------------------
D|-----------------------------------------------------------
A|--0--12--0--14--0--15--14--0--12--0--14--0--15--14--0--12--
E|-----------------------------------------------------------



E|-----------------------------------------------------------
B|-----------------------------------------------------------
G|-----------------------------------------------------------
D|-----------------------------------------------------------
A|--0--11--0--12--0--14--12--0--11--0--12--0--14--12--0--11--
E|-----------------------------------------------------------



E|---------------------------------------------------------------------------------------------
B|---------------------------------------------------------------------------------------------
G|---------------------------------------------------------------------------------------------
D|---------------------------------------------------------------------------------------------
A|--0--10--0--12--0--14--12--0--10--0--12--0--14--12--0--10--0--0--12--0--0--7--0--0--5--0--3--
E|---------------------------------------------------------------------------------------------



E|-------------------------------------------------------------------------------------------------
B|-------------------------------------------------------------------------------------------------
G|-14-14-14-14-14-14-14-14-14-14-14-14-14-14-14-14-13-13-13-13-13-13-13-13-13-13-13-13-13-13-13-13-
D|-------------------------------------------------------------------------------------------------
A|-12-12-12-12-12-12-12-12-12-12-12-12-12-12-12-12-11-11-11-11-11-11-11-11-11-11-11-11-11-11-11-11-
E|-------------------------------------------------------------------------------------------------



E|---------------------------------------------------------------------------------
B|---------------------------------------------------------------------------------
G|-12-12-12-12-12-12-12-12-12-12-12-12-12-12-12-12-9-9-9-9-9-9-9-9-7-7-7-7-7-7-7-7-
D|---------------------------------------------------------------------------------
A|-10-10-10-10-10-10-10-10-10-10-10-10-10-10-10-10-7-7-7-7-7-7-7-7-5-5-5-5-5-5-5-5-
E|---------------------------------------------------------------------------------



E|-------------------------------------------------------------------------------------------------
B|-------------------------------------------------------------------------------------------------
G|-12-12-12-12-12-12-12-12-12-12-12-12-12-12-12-12-13-13-13-13-13-13-13-13-14-14-14-14-16-16-16-16-
D|-------------------------------------------------------------------------------------------------
A|-10-10-10-10-10-10-10-10-10-10-10-10-10-10-10-10-11-11-11-11-11-11-11-11-12-12-12-12-14-14-14-14-
E|-------------------------------------------------------------------------------------------------



E|---------------------------------------------------------------------------------------
B|---------------------------------------------------------------------------------------
G|---------------------------------------------------------------------------------------
D|---------------------------------------------------------------------------------------
A|--0--12--0--14--0--15--14--0--12--0--14--0--15--14--0--11--0--12--0--14--0--12--11-----
E|---------------------------------------------------------------------------------------



E|---------------------------------------------------------------------------------------------------------
B|---------------------------------------------------------------------------------------------------------
G|-------------------------------------------------------------------------------------12--12--12--13--13--
D|---------------------------------12------12------12------14--14--12------12--12--12----------------------
A|--0--11--0--12--0--14--0--11h12------12------12------12--------------12----------------------------------
E|---------------------------------------------------------------------------------------------------------



E|------------------------------------------------------------------------------------------------
B|--13--12--10--9--13--12--10--9--15--13--12--10--15--13--12--10--17--15--13--12--17--15--13--12--
G|------------------------------------------------------------------------------------------------
D|------------------------------------------------------------------------------------------------
A|------------------------------------------------------------------------------------------------
E|------------------------------------------------------------------------------------------------



E|------12------12------12------14------17------19--
B|--10------10------10------12------15------17------
G|--------------------------------------------------
D|--------------------------------------------------
A|--------------------------------------------------
E|--------------------------------------------------



E|--------------------------------------------------
B|--------------------------------------------------
G|--------------------------------------------------
D|-----------------------5--------7--5--------------
A|--0--5--8--0--7--5--0-----8--0--------0--6--5-----
E|-----------------------------------------------8--



E|--------------------------------------------------
B|--------------------------------------------------
G|--------------------------------------------------
D|--------------------------------------------------
A|--------------------------------5--------7--5-----
E|--0--5--8--0--8--7--0--7--6--0-----8--0--------7--
http://www.guitartabcreator.com
Guitar Tab Creator is intended to store guitar tab created through the tool. It currently does not support in-line text editing. Any text you place in here will be lost. If you need to comment on your tab, please use the "Tab Notes" section located below.