Mother

(/) Slide Up  (\) Slide Down  (h) Hammer On  (p) Pull Off  (b) Bend (r) Release (v) Vibrato


E|--7--
B|--7--
G|--7--
D|-----
A|-----
E|-----



E|----------------------------------------------------------------
B|----------------------------------------------------------------
G|----------------------------------------------------------------
D|----------------------------------------------------------------
A|----------------------------------------------------------------
E|--9--7--2--0--6--5--9--7--2--0--7----9--7--2--0--6--5--9--7--2--



E|------------------------------------------------------------------------------------------
B|------------------------------------------------------------------------------------------
G|------------------------------------------------------------------------------------------
D|-----9-----9-----9-----9-----9-------7-----7-----7-----7-----7-------6-----6-----2-----2--
A|------------------------------------------------------------------------------------------
E|--9-----9-----9-----9-----9-------7-----7-----7-----7-----7-------6-----6-----2-----2-----



E|----------------------------------------
B|----------------------------------------
G|----------------------------------------
D|-----5----------------------------------
A|-------------5-----5-----4-----4-----5--
E|--5-------0-----0-----0-----0-----0-----



E|--------------------------------------------------------------------------------------------------
B|--------------------------------------------------------------------------------------------------
G|--------------------------------------------------------------------------------------------------
D|-----9--------9--------9--------9--------9-----------7--------7--------7--------7--------7--------
A|--------9--------9--------9--------9--------9-----------9--------9--------9--------9--------9-----
E|--9--------9--------9--------9--------9--------9--7--------7--------7--------7--------7--------7--



E|-----------------------------------------------------------------------------------------------
B|-----------------------------------------------------------------------------------------------
G|-----------------------------------------------------------------------------------------------
D|-----6--------6--------2--------4--------2-----------4--------4--------4--------4--------4-----
A|--------7--------7--------2--------2--------2-----------5--------5--------4--------4--------5--
E|--6--------6--------6--------2--------2--------2--0--------0--------0--------0--------0--------



E|-------------------------------------------------------------------------------------
B|-------------------------------------------------------------------------------------
G|-------------------------------------------------------------------------------------
D|-------------------------------------------------------------------------------------
A|-----------------10--------10--------10--------10-----9---------7--------7-----------
E|--5--5--5--7--9------7--9------7--9------7--9------7-----10--9-----9--7-----9--7-----



E|-------------------------------
B|-------------------------------
G|-------------------------------
D|----------------------------7--
A|--9---------9---------9--7-----
E|-----10--9-----10--9-----------



E|----------------------------------------------
B|----------------------------------------------
G|----------------------------------------------
D|--9--9--7--9----7--9--9--7--9----7--9--9--10--
A|----------------------------------------------
E|--9--9--7--9----7--9--9--7--9----7--9--9--10--



E|--------------------------------------------------
B|--------------------------------------------------
G|--------------------------------------------------
D|--9--9--9--7--7--7--2--2--2--0--0--0--6--6--5--5--
A|--9--9--9--7--7--7--2--2--2--0--0--0--6--6--5--5--
E|--9--9--9--7--7--7--2--2--2--0--0--0--6--6--5--5--



E|-------------------------------------------------
B|-------------------------------------------------
G|-------------------------------------------------
D|--9--9--9--7--7--7--2--2--2--0--0--0--7--10--11--
A|--9--9--9--7--7--7--2--2--2--0--0--0--7--10--11--
E|--9--9--9--7--7--7--2--2--2--0--0--0--7--10--11--



E|--------------------------------------------------
B|--------------------------------------------------
G|--------------------------------------------------
D|--------------------------------------------------
A|--------------------------------------------------
E|--9--9--9--7--7--7--2--2--2--0--0--0--6--6--5--5--



E|--------------------------------------------------
B|--------------------------------------------------
G|--------------------------------------------------
D|-----9--------7--------2-----------------6-----5--
A|--------------------------------5-----------------
E|--9-----9--7-----7--2-----2--0-----0--6-----5-----



E|-------------------------------------------------
B|-------------------------------------------------
G|-------------------------------------------------
D|-----9--------7--------2-------------------------
A|--------------------------------5----------------
E|--9-----9--7-----7--2-----2--0-----0--7--10--11--
http://www.guitartabcreator.com
Guitar Tab Creator is intended to store guitar tab created through the tool. It currently does not support in-line text editing. Any text you place in here will be lost. If you need to comment on your tab, please use the "Tab Notes" section located below.