Lead On

(/) Slide Up  (\) Slide Down  (h) Hammer On  (p) Pull Off  (b) Bend (r) Release (v) Vibrato


E|--------------------------------------------------------------------------------
B|--------------------------------------------------------------------------------
G|--------2-----4-----------------------------------------------------------------
D|-----4-----2-----2-----2--4-----5--5--4--2-----0--2--4--------------------------
A|--2-----------------4--------2--------------4-----------2--0--4--5--5--4--2--0--
E|--------------------------------------------------------------------------------



E|-----------------------------------------------------------------------------------------------
B|-----0--------0--------0--------0-----0-----0--------0--------0--------0--------0-----0-----0--
G|--4-----4--4-----4--4-----4--4-----2-----2-----6--6-----6--6-----6--6-----6--6-----4-----4-----
D|-----------------------------------------------------------------------------------------------
A|-----------------------------------------------------------------------------------------------
E|-----------------------------------------------------------------------------------------------



E|------------------------------------------------------------------------------------------------------
B|------0------0------0------0-----0-----0-----0-----0-----0-----0-----0-----0-----0-----0-----0-----0--
G|--12-----12-----11-----11-----9-----9-----7-----7-----9-----9-----6-----6-----7-----7-----1-----1-----
D|------------------------------------------------------------------------------------------------------
A|------------------------------------------------------------------------------------------------------
E|------------------------------------------------------------------------------------------------------



E|-----------------------------------------------------------------------
B|--0--0--0--12--10--0--0--0--10--8--0--0--0--8--7--0--0--0--4--5--4--1--
G|-----------------------------------------------------------------------
D|-----------------------------------------------------------------------
A|-----------------------------------------------------------------------
E|-----------------------------------------------------------------------



E|-----------------------------------------------------------------------
B|--0--0--0--12--10--0--0--0--10--8--0--0--0--8--7--0--0--0--3--2--------
G|-----------------------------------------------------------------1--1--
D|-----------------------------------------------------------------------
A|-----------------------------------------------------------------------
E|-----------------------------------------------------------------------
http://www.guitartabcreator.com
Guitar Tab Creator is intended to store guitar tab created through the tool. It currently does not support in-line text editing. Any text you place in here will be lost. If you need to comment on your tab, please use the "Tab Notes" section located below.