jam53

(/) Slide Up  (\) Slide Down  (h) Hammer On  (p) Pull Off  (b) Bend (r) Release (v) Vibrato


E|----------17----------14---------------------------
B|--------------------------12--11-------------------
G|------12------14--11---------------------------17--
D|--12-----------------------------------------------
A|---------------------------------------------------
E|----------------------------------0----------------



E|-------------------------------------------
B|-------------------------------------------
G|-------------------------------------------
D|-------------------------------------------
A|-------------------------------------------
E|--12--12--12--12--12----12--12--12--12--0--



E|---------------------------------------------------------------
B|---------------------------------------------------------------
G|-------------------11-----------------12-----------------------
D|-------------------------10--12--------------------------------
A|-------------------9-----10--12-------10-----------------------
E|--0----0----0--10--------10--12--0----------10/13--13--13--13--



E|--------------------------------------------------
B|--------------------------------------------------
G|--------------------------------------------------
D|--------------------------------------------------
A|--------------------------3--5--5--5--5--3--------
E|--0--0--0--0--0--0--3--5--------------------5--3--



E|--------------------------------------------------------
B|--------------------------------------------------------
G|--------------------------------------------------------
D|--------------------------------------------------------
A|---------------------------7--10--10--10--10--7---------
E|--0--0--0--0--0--0--7--10------------------------10--7--



E|--------------------------------------------------------
B|--------------------------------------------------------
G|--------------------------------------------------------
D|--------------------------------------------------------
A|---------------------------8--10--10--10--10--8---------
E|--0--0--0--0--0--0--8--10------------------------10--8--



E|------------------------------------------------------------
B|------------------------------------------------------------
G|------------------------------------------------------------
D|------------------------------------------------------------
A|----------------------------10--12--12--12--12--10----------
E|--0--0--0--0--0--0--10--12--------------------------12--10--



E|------------------------------------------------------------
B|------------------------------------------------------------
G|------------------------------------------------------------
D|--0----0----8----8----10----10----5----5----8----8----3--0--
A|--0----0----8----8----10----10----5----5----8----8----3--0--
E|--0----0----8----8----10----10----5----5----8----8----3--0--



E|--------------------------------------------------------13--12----------------13--12------
B|--------------------------------------------13----12------------10----10--12----------10--
G|--7/14--14--14--12--------7/14--14--14--12------------------------------------------------
D|--------------------12--------------------------------------------------------------------
A|------------------------------------------------------------------------------------------
E|------------------------------------------------------------------------------------------



E|----------13--13--12----12/15--15/17----21--21--20--20--17--17--15--15--12--13--12--
B|--10--12----------------------------------------------------------------------------
G|------------------------------------------------------------------------------------
D|------------------------------------------------------------------------------------
A|------------------------------------------------------------------------------------
E|------------------------------------------------------------------------------------



E|--21--21--20--20--17--17--15--15--12--13--12----------------------------------------------------
B|----------------------------------------------------15------17------15------17------15------17--
G|------------------------------------------------14------14------14------14------14------14------
D|------------------------------------------------------------------------------------------------
A|------------------------------------------------------------------------------------------------
E|------------------------------------------------------------------------------------------------



E|-----------------------------------------------------------
B|-----------------------------------------------------------
G|-----------------------------------------------------------
D|-------------------0---------------------------------------
A|-12-12-------------0---13-13-------------------------------
E|-------10-10-12-12-0---------10-10-12-12-13-13-12-12-10-10-
http://www.guitartabcreator.com
Guitar Tab Creator is intended to store guitar tab created through the tool. It currently does not support in-line text editing. Any text you place in here will be lost. If you need to comment on your tab, please use the "Tab Notes" section located below.