Dead Hands

(/) Slide Up  (\) Slide Down  (h) Hammer On  (p) Pull Off  (b) Bend (r) Release (v) Vibrato
E|----------------------------------------------------------------
B|----------------------------------------------------------------
G|-----------------------------5-------------------------------5--
D|-----------------------------5-------------------------------5--
A|-----------------------------3-------------------------------3--
E|--0--0--6--5--6--5--3--5--0--3----0--0--5--3--5--3--6--3--0--3--



E|---------------------------------------------------------------------------------
B|---------------------------------------------------------------------------------
G|---------------------------------------------------------------------------------
D|---------------------------------------------------------------------------------
A|---------------------------------------------------------------------------------
E|--8--10--10--8--10----10--7--9--9--8--7----0--3--3--5--3--0--10--12--5--4--3--0--



E|-------------------------------------------------------------------------------------
B|-------------------------------------------------------------------------------------
G|-------------------------------------------------------------------------------------
D|-------------------------------------------------------------------------------------
A|-------------------------------------------------------------------------------------
E|--8--10--10--8--10----10--7--9--9--8--7----0--3--3--5--3--0--3--0--3--4--4--5--5--7--



E|-----------------------------------------------------------------------------------
B|-----------------------------------------------------------------------------------
G|-----------------------------------------------------------------------------------
D|-----------------------------------------------------------------------------------
A|-----------------------------------------------------------------------------------
E|--8--10--10--8--10----10--7--9--9--8--7----0--3--5--3--0--10--12--5--3--0--10--12--



E|-------------------------------------------------------------
B|----------------------------------------------------------8--
G|----------------------------------------------------------7--
D|----------------------------------------------------------5--
A|----------------------------------------------------------5--
E|--8--10--10--8--10----10--7--9--9--8--7----0--3--3--5--5--5--



E|-------------------------------------------------------------------------------------
B|-------------------------------------------------------------------------------------
G|-------------------------------------------------------------------------------------
D|-------------------------------------------------------------------------------------
A|-------------------------------------------------------------------------------------
E|--0----0--6--5--6--5--3--5--0----0--3--5--0----0--5--3--5--3--6--3--0----0--3--5--0--



E|------------------------------------------------------------------------------
B|------------------------------------------------------------------------------
G|------------------------------------------------------------------------------
D|------------------------------------------------------------------------------
A|---------------------------------------------------------------3--5--3--5--5--
E|--0--6--5--6--5--3--5--0----0--3--5--0----0--5--3--5--3--3--5-----------------



E|-----------------------------------------------------------------------------------
B|-----------------------------------------------------------------------------------
G|-----------------------------------------------------------------------------------
D|-----------------------------------------------------------------------------------
A|--------------------------------------------------------------3--------5-----------
E|--0----0--6--5--6--5--3--5--0----0--3--5--0----0--5--3--5--3-----5--0-----3--5-----



E|-----------------------------------------------------------------------------------------
B|-----------------------------------------------------------------------------------------
G|-----------------------------------------------------------------------------------------
D|-----------------------------------------------------------------------------------------
A|--------------------------------------------------------------------3--5--3--------------
E|--0----0--6--5--6--5--3--5--0----0--3--5--0----0--5--3--5--3--3--5-----------5--3--5-----



E|--5----------3--------
B|-----3----------3-----
G|--------2----------2--
D|----------------------
A|----------------------
E|----------------------



E|-----------------------------------------------------------------------------------------
B|-----------------------------------------------------------------------------------------
G|--7----------------------------5----------------------------4----------------------------
D|-----------------------------------------------------------------------------------------
A|--5----------------------------3----------------------------2----------------------------
E|-------0--6--5--6--5--3--5--0-------0--5--3--5--3--6--3--0-------0--3--5--3--5--6--3--0--
http://www.guitartabcreator.com
Guitar Tab Creator is intended to store guitar tab created through the tool. It currently does not support in-line text editing. Any text you place in here will be lost. If you need to comment on your tab, please use the "Tab Notes" section located below.