Exercise 4

(/) Slide Up  (\) Slide Down  (h) Hammer On  (p) Pull Off  (b) Bend (r) Release (v) Vibrato


E|--------------------------------------------------------------------------------------------------
B|--------------------------------------------------------------------------------------------------
G|-----------4--1--------------------5--2--------------------6--3--------------------7--4-----------
D|--------3--------2--------------4--------3--------------5--------4--------------6--------5--------
A|-----2--------------3--------3--------------4--------4--------------5--------5--------------6-----
E|--1--------------------4--2--------------------5--3--------------------6--4--------------------7--



E|------------------------------------------------------------
B|------------------------------------------------------------
G|------------11--8------------------------12--9--------------
D|--------10---------9-----------------11---------10----------
A|-----9----------------10---------10-----------------11------
E|--8-----------------------11--9-------------------------12--
http://www.guitartabcreator.com
Guitar Tab Creator is intended to store guitar tab created through the tool. It currently does not support in-line text editing. Any text you place in here will be lost. If you need to comment on your tab, please use the "Tab Notes" section located below.