Exercise 3

(/) Slide Up  (\) Slide Down  (h) Hammer On  (p) Pull Off  (b) Bend (r) Release (v) Vibrato


E|--------------------------------------------------------------1--3--2--4--
B|--------------------------------------------------1--3--2--4--------------
G|--------------------------------------1--3--2--4--------------------------
D|--------------------------1--3--2--4--------------------------------------
A|--------------1--3--2--4--------------------------------------------------
E|--1--3--2--4--------------------------------------------------------------



E|--4--2--3--1--------------------------------------------------------------
B|--------------4--2--3--1--------------------------------------------------
G|--------------------------4--2--3--1--------------------------------------
D|--------------------------------------4--2--3--1--------------------------
A|--------------------------------------------------4--2--3--1--------------
E|--------------------------------------------------------------4--2--3--1--
http://www.guitartabcreator.com
Guitar Tab Creator is intended to store guitar tab created through the tool. It currently does not support in-line text editing. Any text you place in here will be lost. If you need to comment on your tab, please use the "Tab Notes" section located below.