Exercise 2

(/) Slide Up  (\) Slide Down  (h) Hammer On  (p) Pull Off  (b) Bend (r) Release (v) Vibrato


E|--------------------------------------------------------------6--7--8--9--
B|--------------------------------------------------5--6--7--8--------------
G|--------------------------------------4--5--6--7--------------------------
D|--------------------------3--4--5--6--------------------------------------
A|--------------2--3--4--5--------------------------------------------------
E|--1--2--3--4--------------------------------------------------------------



E|--9--8--7--6--------------------------------------------------------------
B|--------------8--7--6--5--------------------------------------------------
G|--------------------------7--6--5--4--------------------------------------
D|--------------------------------------6--5--4--3--------------------------
A|--------------------------------------------------5--4--3--2--------------
E|--------------------------------------------------------------4--3--2--1--
http://www.guitartabcreator.com
Guitar Tab Creator is intended to store guitar tab created through the tool. It currently does not support in-line text editing. Any text you place in here will be lost. If you need to comment on your tab, please use the "Tab Notes" section located below.