The chicken

(/) Slide Up  (\) Slide Down  (h) Hammer On  (p) Pull Off  (b) Bend (r) Release (v) Vibrato


E|--------------------------------|--
B|--------------------------------|--
G|--------------------------------|--
D|-----------------------------7--|--
A|----------7--7--8--8--9--10-----|--
E|--8----8------------------------|--



E|--------------------------------|--
B|--------------------------------|--
G|-----------------------------7--|--
D|----------7--7--8--8--9--10-----|--
A|--8----8------------------------|--
E|--------------------------------|--



E|----------------------------------------------------|--
B|----------------------------------------------------|--
G|--9--9----9--9--6-----------------------------------|--
D|-------------------9-------7--7----7--7--4----------|--
A|----------------------7---------------------7-------|--
E|-----------------------------------------------5----|--



E|--------------------------------------------------------------------------------|--
B|--------------------------------------------------------------------------------|--
G|--------------------------------------------------------------------------------|--
D|----------4--5--6--7----------------4--5--6--7----------------4--5--6--7--------|--
A|--5----5--------------------5----5--------------------5----5--------------------|--
E|--------------------------------------------------------------------------------|--



E|-----------------------------------------|--
B|-----------------------------------------|--
G|-----------------------------------------|--
D|--10--8----------------------------------|--
A|---------10----8----6------------8-------|--
E|-------------------------8--6---------8--|--
http://www.guitartabcreator.com
Guitar Tab Creator is intended to store guitar tab created through the tool. It currently does not support in-line text editing. Any text you place in here will be lost. If you need to comment on your tab, please use the "Tab Notes" section located below.