Piece reigns in the land

(/) Slide Up  (\) Slide Down  (h) Hammer On  (p) Pull Off  (b) Bend (r) Release (v) Vibrato
E|--------------------------------------------------
B|------------7--6--5--4--3------7--6--5--4--5------
G|-----5/7------------------------------------------
D|--0-----------------------------------------------
A|--------------------------------------------------
E|--------------------------------------------------



E|-------------------------------------------------------------
B|--3--3h5--1h3--0h1--0----------------------------------------
G|-----------------------0--0-----0----------------------------
D|-----------------------------2-----2r1--0--3--1--3--1--0-----
A|-------------------------------------------------------------
E|-------------------------------------------------------------



E|---------------------------------------------
B|-------7--6--5--4--3------7--6--5--4--5------
G|--5/7----------------------------------------
D|---------------------------------------------
A|---------------------------------------------
E|---------------------------------------------



E|-----------------------------------------------
B|--3--3h5--1h3--0h1--0-----------------3--------
G|-----------------------0--0-----0--------3-----
D|-----------------------------2-----2--------4--
A|-----------------------------------------------
E|-----------------------------------------------



E|--------------------------------------2/3--2------------------------------
B|-----3--3----1--0------------0--1--3----------3--3--0--3----0--3/5--3-----
G|--0----------------2------2--------------------------------------------4--
D|--------------------------------------------------------------------------
A|--------------------------------------------------------------------------
E|--------------------------------------------------------------------------



E|--------------------------------------------------------
B|-------3--3----1--0-------------------------------------
G|--2/4----------------2--------4--2--0--0-----0-------2--
D|------------------------------------------2-----1/2-----
A|--------------------------------------------------------
E|--------------------------------------------------------



E|-----------------------------5-----3-----------------------------
B|----------7--6--5--4--3---------7-----3h5--3------7--6--5--4--3--
G|-----5/7---------------------------------------------------------
D|--0--------------------------------------------------------------
A|-----------------------------------------------------------------
E|-----------------------------------------------------------------
http://www.guitartabcreator.com
Guitar Tab Creator is intended to store guitar tab created through the tool. It currently does not support in-line text editing. Any text you place in here will be lost. If you need to comment on your tab, please use the "Tab Notes" section located below.