All Signs point to Lauderdale For Kim

(/) Slide Up  (\) Slide Down  (h) Hammer On  (p) Pull Off  (b) Bend (r) Release (v) Vibrato Parenthesis=Optional (.)=Palm mute when directly below a fret number (-) Separates 2 numbers (ex. 1-0 is the first fret then open string and NOT the 10th fret)

Intro/Verse (play this as an intro 4 times and as a chorus 2 times and only palm mute the the first two times you play this in the whole song)

D|--
A|--
F|-- 5-5-5-5-5-5-5-5
C|--3-3-3-3-3-3-3-3-5-5-5-5-5-5-5-5-7-7-7-7-7-7-7-7-5-5-5-5-5-5-5-5
G|--3-3-3-3-3-3-3-3-3-3-3-3-3-3-3-3-7-7-7-7-7-7-7-7-5-5-5-5-5-5-5-5
C|--3-3-3-3-3-3-3-3 -7-7-7-7-7-7-7-7-5-5-5-5-5-5-5-5
Pm--...............................................................

Verse

D|--
A|--
F|--
C|--3-3-3--3-3--------7-7-7--7-7--------3-3-3--3-3--------7-7-7--7-5-5
G|--3-3-3--3-3--------7-7-7--7-7--------3-3-3--3-3--------7-7-7--7-5-5
C|--3-3-3--3-3--------7-7-7--7-7--------3-3-3--3-3--------7-7-7--7-5-5

D|--
A|--
F|--
C|--
G|--3-3-3-3-3-3-3-3-3-3-3-3-3-3-3-3-7-7-7-7-7-7-7-7-5-5-5-5-5-5-5-5-3-3-3-3-3-3-3-3-3-3-3-3-3-3-3-3-7-
C|--3-3-3-3-3-3-3-3-3-3-3-3-3-3-3-3-7-7-7-7-7-7-7-7-5-5-5-5-5-5-5-5-3-3-3-3-3-3-3-3-3-3-3-3-3-3-3-3-7-

D|--
A|--
F|--
C|--
G|--7-7-7-7-7-7-7-5-5
C|--7-7-7-7-7-7-7-5-5

Bridge (Play 2 times and don't palm mute the 2nd time)

D|--
A|--
F|--
C|--7-7-7-7-7-7-7-7-7-7-7-7-7-7-7-7-5-5-5-5-5-5-5-5-5-5-5-5-5-5-5-5-3-3-3-3-3-3-3-3-3-3-3-3-3-3-3-3
G|--7-7-7-7-7-7-7-7-7-7-7-7-7-7-7-7-5-5-5-5-5-5-5-5-5-5-5-5-5-5-5-5-3-3-3-3-3-3-3-3-3-3-3-3-3-3-3-3
C|--7-7-7-7-7-7-7-7-7-7-7-7-7-7-7-7-5-5-5-5-5-5-5-5-5-5-5-5-5-5-5-5-3-3-3-3-3-3-3-3-3-3-3-3-3-3-3-3
Pm--...............................................................................................
Guitar Tab Creator is intended to store guitar tab created through the tool. It currently does not support in-line text editing. Any text you place in here will be lost. If you need to comment on your tab, please use the "Tab Notes" section located below.