Wonerful Land

(/) Slide Up  (\) Slide Down  (h) Hammer On  (p) Pull Off  (b) Bend (r) Release (v) Vibrato


E|--15--13--12----------|------|--15--13--12----------|------|-----------|--------------|-----------
B|--------------15--13--|--15--|--------------15--13--|--15--|-----------|--------------|-----------
G|----------------------|------|----------------------|------|-----------|--------------|-----------
D|----------------------|------|----------------------|------|--5-----5--|--7--7--4-----|--7-----7--
A|----------------------|------|----------------------|------|-----5-----|-----------5--|-----8-----
E|----------------------|------|----------------------|------|-----------|--------------|-----------



E|--------------|-----------|-----------------|----------------|-----|--------------|-----------5--
B|--------------|--------5--|--6--6--5--------|----------------|-----|--5-----------|--5-----------
G|--5--5--------|--5--7-----|-----------7--5--|--7----7--7--7--|--7--|-----5--------|-----5--------
D|--------5-----|-----------|-----------------|----------------|-----|--------7--5--|--------5-----
A|-----------7--|-----------|-----------------|----------------|-----|--------------|--------------
E|--------------|-----------|-----------------|----------------|-----|--------------|--------------



E|--5--------|--6--5--6--|--------|-------------------|-------------------|-------------------
B|-----8-----|-----------|--------|-------------------|-------------------|-------------------
G|--------7--|-----------|--5-----|-------------------|-------------------|-------------------
D|-----------|-----------|-----6--|--5----5-----5--9--|--5----5-----5--9--|--5----5-----5--9--
A|-----------|-----------|--------|----------7--------|----------7--------|----------7--------
E|-----------|-----------|--------|-------------------|-------------------|-------------------



E|-----------|--------------------|-----------|--------------------|-----------|-----------------
B|-----------|--------------------|-----------|--------------------|--------5--|--6--6--5--------
G|-----------|--------------------|-----------|--5--5--5--5--------|--5--7-----|-----------7--5--
D|--5-----5--|--7--7--7--7--4-----|--7-----7--|--------------5-----|-----------|-----------------
A|-----5-----|-----------------5--|-----8-----|-----------------8--|-----------|-----------------
E|-----------|--------------------|-----------|--------------------|-----------|-----------------



E|------------|-8-7---|----8----------|----8-7---|----8------|-12-10-7-|-8-10-8-7-----------|-
B|------------|-----8-|-10---10-8-----|--------8-|-10---10-8-|---------|----------10-10-----|-
G|-7--7-7-7-7-|-------|-----------9-7-|----------|-----------|---------|------------------9-|-
D|------------|-------|---------------|-10-------|-----------|---------|----------------9---|-
A|------------|-------|---------------|----------|-----------|---------|--------------------|-
E|------------|-------|---------------|----------|-----------|---------|--------------------|-



E|---------|------------|------------------|-------------|-------|-------------|-------|-
B|-8-------|------------|------------------|-------------|-------|-------------|-----5-|-
G|---------|------------|------------------|-------------|-------|-5-5-5-5-----|-5-7---|-
D|-----5-9-|-5--5---5-9-|-5--5---5-9-5---5-|-7-7-7-7-4---|-7---7-|---------5---|-------|-
A|---7-----|------7-----|------7-------5---|-----------5-|---8---|-----------7-|-------|-
E|---------|------------|------------------|-------------|-------|-------------|-------|-



E|-----------|-----------|-8-7---|----8----------|----8-7---|----8------|-12-10-7-|-
B|-6-6-5-----|-7-7-7-7-7-|-----8-|-10---10-8-----|--------8-|-10---10-8-|---------|-
G|-------7-5-|-----------|-------|-----------9-7-|----------|-----------|---------|-
D|-----------|-----------|-------|---------------|-10-------|-----------|---------|-
A|-----------|-----------|-------|---------------|----------|-----------|---------|-
E|-----------|-----------|-------|---------------|----------|-----------|---------|-



E|-8-10-8-7-----------|----------7-|-------------7---|-15-13-12----------|-15-13-12----------
B|----------10-10---9-|-8--8-5-8---|-8-7-8-8-5-8---8-|----------15-13-15-|----------15-13-15-
G|----------------9---|------------|-----------------|-------------------|-------------------
D|--------------------|------------|-----------------|-------------------|-------------------
A|--------------------|------------|-----------------|-------------------|-------------------
E|--------------------|------------|-----------------|-------------------|-------------------
http://www.guitartabcreator.com
Guitar Tab Creator is intended to store guitar tab created through the tool. It currently does not support in-line text editing. Any text you place in here will be lost. If you need to comment on your tab, please use the "Tab Notes" section located below.